Song name
# A B C D E F G H I J K L M N O P Q R S T U V W X Y Z

Rent - La Vie Boheme tab

La Vie Boheme Intro
from Rent

[this is one octave up from how it's played on piano]


------------------------|-------------------------|------------------------|
------------------------|-------------------------|------------------------|
-------1----------------|----------------------1--|-------1----------------|
---------------------1--|--------1----------------|---------------------1--|
-------------3--4-------|-----------4----3--------|-------------3--4-------|
--4-------4-------------|-----4-------------4-----|--4-------4-------------|



-------------------------|
-------------------------|
----------------1-----1--|
-----3--1----------------|
-----------4-------------|
-------------------4-----|
Tap to rate this tab
# A B C D E F G H I J K L M N O P Q R S T U V W X Y Z