Song name
# A B C D E F G H I J K L M N O P Q R S T U V W X Y Z

Rentals - Getting Bye tab

Artist: The Rentals
Album: Seven more Minutes
Song: Getting Bye

Although this is played dropped a half step I tabbed
It standard tuning so the Keyboard-Guitar transition would
Be alot easier
                 
                G#  C#  D#  F  A
Chords used: E--------------------
	     B--------------------
             G------6---8---------
             D--6---6---8---3--5--
             A--6---4---6---3--5--
             E--4-----------1--3--

Intro: G# D# C# D#

Moog intro and fill:

E----------------------------------------
B----------------------------------------
G---6-8-6-10-8-6-8------6-8-6-10-8-6-8---
D-6-----------------6-6------------------ 2x
A----------------------------------------
E----------------------------------------

Verse: G# D# C# D#

Chorus: C# G# F
        C# G# D#
        C# G# F
        C# G# D#

Bridge: G# A C# ( A little off )
Moog part during the Bridge:

E-----------
B-----------
G--------6--
D--6-7------ ?x
A-----------
E-----------
Tap to rate this tab
# A B C D E F G H I J K L M N O P Q R S T U V W X Y Z