Song name
# A B C D E F G H I J K L M N O P Q R S T U V W X Y Z

Rentaro Taki - Kojo No Tsuki tab

This is a piece by the Japanese composer and pianist Rentaro Taki. The title
translates to "Moon at a Desolate Castle". This particular arrangement is from
Lawrence Ferrara's book "The Student Repertoire Series Vol. 2", an excellent
source for classical guitar study.  There is also a version I have heard by
The Los Angeles Guitar Quartet that is very good but this version is ideal for
a solo performance.

Fourfox@earthlink.net

                            Kojo No Tsuki

                                                Comp. Rentaro Taki (1879-1903)
                                                         Arr. Lawrence Ferrara
                                                     Tab David Maurice Garrett


  |   |   |   |    |   |   |   |    |   |   |   |    |   |   |   |  
E ----0-3-5-6-5---|----0-----------|------------0-1-|0---------------|
B --3-------------|----------3---3-|----------3-----|----3-----------|
G 2---------------|2-----------3---|2-------2-------|--------3-3-2-0-|
D ----------------|----------------|----------------|----------------|
A ----------------|----------------|----------------|----------------|
E ----------------|----------------|----------------|----------------|


  |   |   |   |      |   |   |   |    |   |   |   |     
E ----------------||---------3---5---|6---5---3-------|
B ----------------||*3---3-----3---3-|--3---3---3---3-|
G 2---------------||---0---0-0-------|--------0---0---|
D ----------------||-0---------------|0---------------|
A ----------------||*----------------|----------------|
E ----------------||-----------------|----------------|


  |   |   |   |    |   |   |   |    |   |   |   |    |   |   |   |  
E ----------------|----------------|--------3---5---|6---5---3-------|
B 4---4---3---1---|3---------------|3---3-----3---3-|--3---3---3---3-|
G --0---0---0---0-|--0---0---0---0-|--0---0-0-------|--------0---0---|
D 0-------0-------|0---0---0---0---|0---------------|0---------------|
A ----------------|----------------|----------------|----------------|
E ----------------|----------------|----------------|----------------|


  |   |   |   |    |   |   |   |    |   |   |   |    |   |   |   |  
E ----------------|----------------|----------------|----------------|
B 4---1---3-----3-|----------------|----------------|4---4---3-------|
G --0---0---0-----|0-----0---0---0-|3-----3-2---0---|--0---0---0---0-|
D 0-------0---0---|----0---0---0---|--0-0-----0---0-|0-----------0---|
A ----------------|----------------|----------------|----------------|
E ----------------|3---------------|3---------------|--------3-------|


  |   |   |   |    |   |   |   |    |   |   |   |    |   |   |   |  
E ----------------|----------------|--------3---5---|6---5---3-------|
B 1---3---4---4---|3---------------|3---3-----3---3-|--3---3---3---3-|
G --0---0---0---0-|--0---0---0---0-|--0---0-0-------|--------0---0---|
D --------0-------|----0---0---0---|0---------------|0---------------|
A 3---------------|----------------|----------------|----------------|
E ----------------|3---------------|----------------|----------------|


  |   |   |   |    |   |   |   |     |   |   |   |    |   |   |   |  
E ----------------|----------------||----------------|------------5-6-|
B 4---1---3-----3-|---------------*||----------------|----------3-----|
G --0---0---0-----|0-----0---0---0-||------0h2-------|--0---0---------|
D 0-------0---0---|----0---0---0---||--0h1-----------|----1---0-------|
A ----------------|---------------*||3---------------|----------------|
E ----------------|3---------------||----------------|----------------|


  |   |   |   |    |   |   |   |    |   |   |   |    |   |   |   |  
E 5-----3---3-----|6---5-----3---3-|----------------|--3-6-5-3---3---||
B --------4---3---|------------4---|3---------------|----------------||
G ----------------|----------------|--------2-------|------------0---||
D ----------------|----------------|--------5-------|----------------||
A ----------------|----------------|--------5-------|----------------||
E ----------------|----------------|----------------|----------------||


Tap to rate this tab
# A B C D E F G H I J K L M N O P Q R S T U V W X Y Z