Reo Speedwagon - Cant Fight This Feeling tab

Can't Fight This Feeling-REO speedwagon
this is my first tab. chose this song cuz i cant fight a feeling either. Enjoy!
e)----------------------4------------|I
b)----6v*-----4*bp2-4v-----4s6v------|I
g)-----------------------------------|I
d)-----------------------------------|I
a)-----------------------------------|I
E)-----------------------------------|I

e)----------------------------------|I
b)--4s6v---4br-2--4s7s11v-----------|I
g)----------------------------------|I
d)----------------------------------|I
a)----------------------------------|I
E)----------------------------------|I

e)-------------------9v-------------|I
b)--11v---11p9-7--------------------|I
g)----------------------------------|I
d)----------------------------------|I
a)----------------------------------|I
E)----------------------------------|I

e)-----------------17h19--17h19--17-|v
b)-15h17-15h17-15v------------------|I
g)----------------------------------|I
d)----------------------------------|I
a)----------------------------------|I
E)----------------------------------|Ithis
Tap to rate this tab
 
# A B C D E F G H I J K L M N O P Q R S T U V W X Y Z