Song name
# A B C D E F G H I J K L M N O P Q R S T U V W X Y Z

Reo Speedwagon - Cant Fight This Feeling tab

-----------------------------------------------------------------
I Can't Fight This Feeling- REO Speedwagon
-----------------------------------------------------------------
Tabbed by: Lopope

Tuning: Standard

e|--------------------------------------------xxxx---------------|
B|------------------------------------5-------xxxx---------------|
G|----14///////////--*4b6v---4b6r4-2-4-4b6~---xxxx---------------|
D|--------------------------------------------xxxx---------------|
A|--------------------------------------------xxxx---------------|
E|--------------------------------------------xxxx---------------|

e|---------------------------------xxx---------------------------|
B|---------------------------------xxx------------------9b10~~///|
G|---4b6--4b6~-4b6r4--2-4-9b11~----xxx--9b11~~////--9-7----------|
D|---------------------------------xxx---------------------------|
A|---------------------------------xxx---------------------------|
E|---------------------------------xxx---------------------------|

e|-----------21p17--------------21p17--------------21p17---------|
B|--10p9p7---------17-19p17-17--------17-19p17 17---------17-----|
G|---------------------------------------------------------------|
D|---------------------------------------------------------------|
A|---------------------------------------------------------------|
E|---------------------------------------------------------------|

e|---------------------------------------------------------------|
B|--17b19~--17b19r17~-17B19////----------------------------------|
G|---------------------------------------------------------------|
D|---------------------------------------------------------------|
A|---------------------------------------------------------------|
E|---------------------------------------------------------------|



| b  bend
| h  hammer-on
| p  pull-off
| ~  sustain note
| v  vibrato
| *  harmonic
| x  mute note
| /  slide down
| r  Return to original note you bended
| B  Gradual bend
Tap to rate this tab
# A B C D E F G H I J K L M N O P Q R S T U V W X Y Z