Song name
# A B C D E F G H I J K L M N O P Q R S T U V W X Y Z

Reo Speedwagon - Back On The Road Again tab

-------------------------------------------------------------------------------
                             Back on the Road Again - REO Speedwagon
-------------------------------------------------------------------------------
Tabbed by:lowrider83
E-mail:lowrider83@charter.net

Tuning:Standard

  Intro/Bridge
                                                                 P.H.
e|---------------------------------------------------------------------------|
B|--3-x-x-3--------3-x-x-3--------------3-x-x-3--------3-x-x-3---6b8~--------|
G|--3-x-x-3--------3-x-x-3--------------3-x-x-3--------3-x-x-3---------------|
D|----------5-3h5----------5-5-----3------------5-3h5------------------------|
A|-----------------------------3h5-------------------------------------------|
E|---------------------------------------------------------------------------|

                                            Light PM---------------------------|
e|-----------------------------------------------------------------------------|
B|--3-x-x-3--------3-x-x-3-----------------------------------------------------|
G|--3-x-x-3--------3-x-x-3------------------7-7-7-7-7-7-7-7--5-5--3-3--2-2-----|
D|----------5-3h5----------5-5-----3--------7-7-7-7-7-7-7-7--5-5--3-3--2-2-----|
A|-----------------------------3h5-----3/5--5-5-5-5-5-5-5-5--3-3--1-1--0-0-----|
E|-----------------------------------------------------------------------------|

  VERSE

e|---------------------------------------------------------------------------|
B|--------------------------------------------------------8-9-8--------------|
G|-------------------------------------8-8-8-8-8-8-8-8-8--8-8-8--------------|
D|--5-5-5-5-5-5-5-5-5-5-5-5-5-5-5-5----8-8-8-8-8-8-8-8-8--8-8-8--------------|
A|--5-5-5-5-5-5-5-5-5-5-5-5-5-5-5-5----6-6-6-6-6-6-6-6-6--6-6-6--------------|
E|--3-3-3-3-3-3-3-3-3-3-3-3-3-3-3-3------------------------------------------|

e|---------------------------------------------------------------------------|
B|---------------------------------------------------------------------------|
G|--5-5-5-5-5-5-5-5-5-5-5-5-5-5-5-5------------------------------------------|
D|--5-5-5-5-5-5-5-5-5-5-5-5-5-5-5-5----5-5-5-5-5-5-5-5-----------------------|
A|--3-3-3-3-3-3-3-3-3-3-3-3-3-3-3-3----5-5-5-5-5-5-5-5-----------------------|
E|-------------------------------------3-3-3-3-3-3-3-3--0-0-1-1-2-2----------|

e|---------------------------------------------------------------------------|
B|--------------------------------------------------------8-9-8--------------|
G|-------------------------------------8-8-8-8-8-8-8-8-8--8-8-8--------------|
D|--5-5-5-5-5-5-5-5-5-5-5-5-5-5-5-5----8-8-8-8-8-8-8-8-8--8-8-8--------------|
A|--5-5-5-5-5-5-5-5-5-5-5-5-5-5-5-5----6-6-6-6-6-6-6-6-6--6-6-6--------------|
E|--3-3-3-3-3-3-3-3-3-3-3-3-3-3-3-3------------------------------------------|

e|---------------------------------------------------------------------------|
B|---------------------------------------------------------------------------|
G|--5-5-5-5-5-5-5-5-5-5-5-5-5-5-5-5------------------------------------------|
D|--5-5-5-5-5-5-5-5-5-5-5-5-5-5-5-5----5-5-5-5-5-5-5-5--5-5-6-6-7-7----------|
A|--3-3-3-3-3-3-3-3-3-3-3-3-3-3-3-3----5-5-5-5-5-5-5-5--5-5-6-6-7-7----------|
E|-------------------------------------3-3-3-3-3-3-3-3--3-3-4-4-5-5----------|

  CHORUS

e|---------------------------------------------------------------------------|
B|---------------------------------------------------------------------------|
G|------------------------------------5-5-5-5-5-5-5-5------------------------|
D|--8-8-8-8-8-8-8-8--7-7-7-7-7-7-7-7--5-5-5-5-5-5-5-5--5--5-5--5-5-7-7-------|
A|--8-8-8-8-8-8-8-8--7-7-7-7-7-7-7-7--3-3-3-3-3-3-3-3--5--5-5--5-5-7-7-------|
E|--6-6-6-6-6-6-6-6--5-5-5-5-5-5-5-5-------------------3--3-3--3-3-5-5-------|


e|---------------------------------------------------------------------------|
B|---------------------------------------------------------------------------|
G|------------------------------------5-5-5-5-5-5-5-5------------------------|
D|--8-8-8-8-8-8-8-8--7-7-7-7-7-7-7-7--5-5-5-5-5-5-5-5--5--5-5--5-5-7-7-------|
A|--8-8-8-8-8-8-8-8--7-7-7-7-7-7-7-7--3-3-3-3-3-3-3-3--5--5-5--5-5-7-7-------|
E|--6-6-6-6-6-6-6-6--5-5-5-5-5-5-5-5-------------------3--3-3--3-3-5-5-------|



e|---------------------------------------------------------------------------|
B|---------------------------------------------------------------------------|
G|---------------------------------------------------------------------------|
D|--8-8-8-8-8-8-8---7-7-7-7-7-7-7---6-6-6-6-6-6-6---5-5-5--5-5-7-7-----------|
A|--8-8-8-8-8-8-8---7-7-7-7-7-7-7---6-6-6-6-6-6-6---5-5-5--5-5-7-7-----------|
E|--6-6-6-6-6-6-6---5-5-5-5-5-5-5---4-4-4-4-4-4-4---3-3-3--3-3-5-5-----------|


e|-----------------------------------------------------------------------------|
B|-----------------------------------------------------------------------------|
G|----------------------------------7-7-7-7-7-7-7------------------------------|
D|--8-8-8-8-8-8-8---7-7-7-7-7-7-7---7-7-7-7-7-7-7---5--------------------------|
A|--8-8-8-8-8-8-8---7-7-7-7-7-7-7---5-5-5-5-5-5-5---5--------------------------|
E|--6-6-6-6-6-6-6---5-5-5-5-5-5-5-------------------3--------------------------|



  REPEAT INTRO/BRIDGE

  REPEAT VERSE

  REPEAT CHORUS

  SOLO - VERSE PROGRESSION

  REPEAT CHORUS

  END


Okay folks, this is my very first attempt at tabbing out a song. I left the solo
out because I'm still working on it. I'll add it later, if I feel confident in
it.
Let me know what I'm doing wrong, or right! All feedback is welcome!







************************************

| /   slide up
| \   slide down
| h   hammer-on
| p   pull-off
| ~   vibrato
| +   harmonic
| x   Mute note
| b   Bend
| pb  Pre-bend
| br  Bend release
| pbr Pre-bend release
| brb Bend release bend

************************************
Tap to rate this tab
 
# A B C D E F G H I J K L M N O P Q R S T U V W X Y Z