Song name
# A B C D E F G H I J K L M N O P Q R S T U V W X Y Z

Reo Speedwagon - Flying Turkey Trot tab

This is a sweet bass run!  I know its right. 100% sure
Have fun

by Brad Smith

Reo Speedwagon / Flying Turkey Trot
E:---------------------------------------------------------------------------|
B:---------------------------------------------------------------------------|
G:---------------------------------------------------------------------------|
D:--------------05-----------------------------------------------------------|
A:-----7--5--7------7--5------5h7--7--5--7--5--77-----7------7------777------|
E:--0---------------------7------------------------4------5------6------6s7--|


E:----------------------------]
B:----------------------------]
G:----------------------------]
D:----------------------------]
A:--7-------------------------]
E:-----0----------------------]

Then play the same thing just move one string down
Tap to rate this tab
# A B C D E F G H I J K L M N O P Q R S T U V W X Y Z