Song name
# A B C D E F G H I J K L M N O P Q R S T U V W X Y Z

Reo Speedwagon - Ridin The Storm Out tab

Slide Am
down to ---     ---------- Lay finger Flat
          |     |
          |     |
          |     |
     Am   v     v        Am
e---------------55-------------------55------|
B---11-1--33-3--55-------11-1--33-3--55------|
G---22-2--55-5--55-------22-2--55-5--55------|
D---22-2--55-5--55-------22-2--55-5--55------|
A--------------------------------------------|
E--------------------------------------------|


Listen for the rythem and the cord changes, you have toplay the bar cord or it will sound bad..

Im unsure of the rythem patern but i know its these two cords.
Then it Changes Back to the Am rythem and pattern.

     E                   F
e-----------------------(1)----------|
B-----------------------(1)----------|
G----1------------------(1)2---------|
D----2------------------(1)3---------|
A----2------------------(1)3---------|
E-----------------------(1)----------|

Hope this helps Someone to learn how to play this awesome song.
Tap to rate this tab
 
# A B C D E F G H I J K L M N O P Q R S T U V W X Y Z