Song name
# A B C D E F G H I J K L M N O P Q R S T U V W X Y Z

Repablikan - Mhine tab

Repablikan - Mhine 
Tabbed by: jUju

Tuning: Standard
Capo on 2nd fret. (You can play it w/o a capo)

    G     Dsus4     Cadd9     A7
e|--3-------3---------3--------0--|
B|--3-------3---------3--------1--|
G|--0-------2---------0--------0--|
D|--0-------0---------2--------2--|
A|--2-------0---------3--------0--|
E|--3-------2---------0--------x--|

Intro:

e|-------------------------------0---2---3--------3-2---------0------------|
B|-0-1-33----3-1--------3------3---3---0--------------------3-----------3--|
G|--------------------0------0-----------------0---------0------------0----|
D|---------0--------0-----------------------------------------------0------|
A|----------------2--------3---------------------------2---------3---------|
E|--------3----------------------------------3-----------------------------|

Verse: G A7 Cadd9 A7
G          A7        Cadd9     A7
  Nung una kang makilala

G          A7        Cadd9     A7
  Binigyan mo ng pag-asa           ang buhay ko'y

G          A7        Cadd9     A7
  Bigla na lang nag-bago           dahil sayo

G          A7        Cadd9     A7
  Ang puso ko'y natuto

Pre-Chorus: Cadd9 Dsus4

  Cadd9       Dsus4
Ikaw na sana siyang nalami

  Cadd9       Dsus4
Ko sa May Kapal

Chorus: G A7 Cadd9 Dsus4

        G       A7        Cadd9 
Mahal kita simula pa nung una

Dsus4      G      A7    Cadd9
Sana'y mahal mo rin ako

Dsus4     G        A7       Cadd9  
Dahil ika'y nagsilbing pag-asa

Dsus4      G        A7      Cadd9         Dsus4
At naging ilaw sa aking mundo

You can use the verse chords in the rap verse. 
That's all! Enjoy! I'm juju :)
Tap to rate this tab
 
# A B C D E F G H I J K L M N O P Q R S T U V W X Y Z