Song name
# A B C D E F G H I J K L M N O P Q R S T U V W X Y Z

Replacements - Alex Chilton tab

Solo
E |---------------------------------------------------------------------------------------------|
B |---------------------------------------------------------------------------------------------|
G |---------7-9-9-7--------------9-7----------------9-7----------------7-9-9-7-10-8-11-9-12-10--|
D |----7-9-----------9-7----7-9------9-7---7------------9-7----7-9------------------------------|
A |-9----------------------9----------------9---7---------------9-------------------------------|
E |---------------------------------------------------------------------------------------------|


E |--------------------------------------------------|
B |----------12-12-14-14-14-14-14----------12-12-14--|
G |- 14-14------------------------------14-14--------|
D |--------------------------------------------------|
A |--------------------------------------------------|
E |--------------------------------------------------|
Tap to rate this tab
# A B C D E F G H I J K L M N O P Q R S T U V W X Y Z