Guitaretab - guitar tabs
Song name
# A B C D E F G H I J K L M N O P Q R S T U V W X Y Z

Replacements - Answering Machine tab

Band: The Replacements
Song: Answering Machine
Album: Let It Be
Year: 1984

Intro
						               X4
e||---------------------------------||
B||------5-----4---------------2----||
G||*-------4------4------2-4---2-2-*||
D||*---4------------4----2-4---2---*||
A||--2--------2--------0-0-2---0----||
E||---------------------------------||

Verse
e|---------------------2-2----2---2---2--|
B|-5-4-5-4-5-4-5-4-2-2----2---2---2--|
G|-2-2-2-2-2-2-2-2-3-3----3---3---3--|
D|-2-2-2-2-2-2-2-2-4-4----4---4---4--|
A|-0-0-0-0-0-0-0-0-4-4----4---4---4--|
E|---------------------2-2----2---2---2-|
[ Tab from: http://www.guitaretab.com/r/replacements/173570.html ]
e|-----------------------------------------------|
B|-5-4-2-5-4-5-4------------------------------|
G|-2-2-2-2-2-2-2-11--11-11-11-11-11-13-----8-|
D|-2-2-2-2-2-2-2-9---9--9--9--9--9-9---11-x-|
A|-0-0-0-0-0-0-0-7---7--7--7--7--7-7---9-9-|
E|------------------------------------------7-7-|

e|---------------------2-2----2---2---2--|
B|-5-4-5-4-5-4-5-4-2-2----2---2---2--|
G|-2-2-2-2-2-2-2-2-3-3----3---3---3--|
D|-2-2-2-2-2-2-2-2-4-4----4---4---4--|
A|-0-0-0-0-0-0-0-0-4-4----4---4---4--|
E|---------------------2-2----2---2---2-|

Chorus
e||----------------------------------|
B||----------------------------------|
G||*-9---9-8-6-8-13-13\11\9-9/11-11-|
D||*-6---6-6-6-6-11-11\9-\7-7/9-9--|
A||--4---4-4-4-4-----0-0-0-0-0-0--|
E||----------------------------------|

					       X2
e|-------------------------------||
B|-------------------------------||
G|-11--11-11-11-11-11-13-----8-*||
D|-9---9--9--9--9--9-9---11-x-*||
A|-7---7--7--7--7--7-7---9-9--||
E|-------------------------7-7--||

Notation

\		slide down
/		slide up
x		mute
Related for Answering Machine tab