Song name
# A B C D E F G H I J K L M N O P Q R S T U V W X Y Z

Replacements - Little Mascara tab

LITTLE MASCARA

Note:  I just left the chords in general form.  You're probably looking
to play power chords, ie A:  577XXX, but hey, play it anyway you want.
It sounds pretty good using open chords on an acoustic (ie A: X02220),
too.


Intro:

    A E D     A          E D        A      E D           A
e|--------------0----9-9-7-9-7---------9-9-7-9-7-------------|
B|------2-3-2------------------10-7-10-----------10-7-10-10--|
G|--2-4-------2----------------------------------------------|
D|-----------------------------------------------------------|
A|-----------------------------------------------------------|
E|-----------------------------------------------------------|

    D           A
e|-----------------|
B|--3-2---3-2------|
G|------2-----2-2--|
D|-----------------|
A|-----------------|
E|-----------------|

Verse:

A
You and I fall together

A         D
You and I sleep alone

A
After all things might be better

D                                 Bm   A
At the one and there's one that's long gone

For the moon you keep shootin'
Throw your rope up in the air
For the kids you stay together
You nap 'em and you slap 'em in a highchair

Chorus:

E            A          D               Bm
All you ever wanted was someone to take care of ya

A             E            A  E
All your ever losin' is

D                   A  E
A little mascara

D                   A  E
A little mascara

D
A little mascara

    D           A
e|-----------------|
B|--3-2---3-2------|
G|------2-----2-2--|
D|-----------------|
A|-----------------|
E|-----------------|


Afternoon, things are quiet
Settle back now if you can
Stations clip by like a rocket
Don't you worry if you wonder why he ran

All you ever wanted was someone to take care of ya
All your ever losin' is
A little mascara
A little mascara
A little mascara

D        G      C
That you cry... cry

         G           D       C
That you cry... your eyes

[solo over one set of verse chords; Bob only knows how to play that one]

All you ever wanted was someone Ma'd be scared of
All your ever losin' is
A little mascara
A little mascara
A little mascara

D        A      D
That you cry... cry

         A           E       D
That you cry... your eyes



Hope someone gets some enjoyment out of this!

P.S. Found this on the internet, not mine. 
Tap to rate this tab
# A B C D E F G H I J K L M N O P Q R S T U V W X Y Z