Song name
# A B C D E F G H I J K L M N O P Q R S T U V W X Y Z

Replacements - Sixteen Blue tab

Song: Sixteen Blue
Artist: The Replacements
Album: Let It Be

Tab by Mathias Isaksen

Tuning: Standard EADGBe

This is the solo in the end of the song
It sounds okay to me, but I'm unsure if it should be played exclusively on the B and e strings

                      (Hold for a long time,
                       with feedback)
 |  E  E  Q.                  |           |        Q   Q   |
E|----------------------------|-----------|----------------|
B|-----------------15b17------|-----------|--------17pbr15-|
G|--14-16-14------------------|-----------|----------------|
D|----------------------------|-----------|----------------|
A|----------------------------|-----------|----------------|
E|----------------------------|-----------|----------------|

 |  Q     E  E  Q     E  E    |  Q     E  E  Q     E  E 
E|----------------------------|----------------------------|
B|--------------15------------|--------------15------------|
G|--16----14-16-------16-14 --|--------16-14-------16-14---|
D|----------------------------|----------------------------|
A|----------------------------|----------------------------|
E|----------------------------|----------------------------|

 |  Q     E  E  Q     E  E    |   Q   E     E     E.       E.       E
E|----------------------------|-------------------15-------14---------------|
B|--------------15------------|-------------------------------------15------|
G|--------16-14-------16-14---|-------16----14------------------------------|
D|----------------------------|---------------------------------------------|
A|----------------------------|---------------------------------------------|
E|----------------------------|---------------------------------------------|

 |  Q     E  E  Q     E  E    |   Q    E  E  Q     E  E
E|----------------------------|----------------------------|
B|--------------15------------|--------------15------------|
G|--14----16-14-------16-14---|--------16-14-------16-14---|
D|----------------------------|----------------------------|
A|----------------------------|----------------------------|
E|----------------------------|----------------------------|

 |  Q     E  E  Q     E  E    |  Q     E  E  Q     Q
E|----------------------------|----------------------------|
B|--------------15------------|--------------15------------|
G|--16----14-16-------16-14 --|--------16-14-------16------|
D|----------------------------|----------------------------|
A|----------------------------|----------------------------|
E|----------------------------|----------------------------|

 |  Q.         S  S  Q.                E       |   Q    E  Q.       E
E|---------------------------------------------|----------------------------|
B|--15---------12h15h12------------------------|----------------------------|
G|-------------------------------------14------|--------16-14-------16------|
D|---------------------------------------------|----------------------------|
A|---------------------------------------------|----------------------------|
E|---------------------------------------------|----------------------------|
Tap to rate this tab
# A B C D E F G H I J K L M N O P Q R S T U V W X Y Z