Song name
# A B C D E F G H I J K L M N O P Q R S T U V W X Y Z

Replacements - Skyway tab

Here are the unique parts of what is played here: http://www.youtube.com/watch?v=QDWE35stb7g
Some assembly required.

Capo 3rd fret

  D             GM7       *  Em             A7
|---2--0-2---|-----------|  |--------------|--------------|
|----3----3--|-----------|  |---0------0---|---2------2---|
|--2--2-2--2-|--0-0--0---|  |--0-0----0-0--|--0-0----0-0--|
|-0----------|------0-0--|  |-----2------2-|-----2------2-|
|------------|---------2-|  |-2------2-----|-0------0-----|
|------------|-3-2-0-----|  |--------------|--------------|

 0:49 (other place)
  Em                  A7               Em  A7             
|-------------------|----------------|    |----------------
|----0---------0----|----0----0------|    |----0----0------
|---0--0------0--0--|---3----3---3---|    |---3----3-------
|--3----3----3----3-|--0----------0--|    |--0-------------
|-3---------3-------|-3-----3------3-|    |-3-----3----3---
|-------------------|----------------|    |----------------

  GM7                                   C (C A7 G Em C A7)   G                            
|-------------------------------0-----|------------------  |--------------
|--3-3--3-3---3-3---3-3---3-3-3---3---|----1--------1----  |---0------0---  
|---0----0-----0-----0-----0---0---0--|---0--0-----0--0--  |--0-0----0-0--  
|-----------------------------------0-|-------2--------2-  |-----0------0-  
|-------------------------------------|-3--------3-------  |--------------
|-3----3-----3-----2-----0------------|------------------  |-3------3----- 
                
oh then one day 1:24

  D              GM7                   D              
|----2--0--2---|---------------------|----2------2---|
|---3-3---3-3--|---------------------|-----3------3--|
|--2---2-2---2-|----0-----0-----0----|--2---2---2--2-|
|-0------------|---0-----0-----0-0---|-0-------0-----|
|--------------|------------------2--|---------------|
|--------------|-3-----2-----0-------|---------------|
 
  Em                  A7        GM7               D
|-------------------|-------------|-----0-------0---|---2-----2---|
|----0---------0----|----0--------|------3-------3--|----3-----3--|
|---0--0------0--0--|---3-3-------|-------0-------0-|--2--2--2--2-|
|--3----3----3----3-|--0---0------|---0-------0-----|-0-----0-----|
|-3---------3-------|-3-----3-----|-----------------|-------------|
|-------------------|-------------|-3--------3------|-------------|

 GM7               D
|-----0-------0---|----20----0h2-|
|------3-------3--|---3--3---3---|
|-------0-------0-|-------2--2---|
|---0-------0-----|-0--------0---|
|-----------------|--------------|
|-3--------3------|--------------|
Tap to rate this tab
 
# A B C D E F G H I J K L M N O P Q R S T U V W X Y Z