Song name
# A B C D E F G H I J K L M N O P Q R S T U V W X Y Z

Replacements - Im In Trouble tab

Help us improve GuitareTab! Take a short survey!
Intro:
e-11-12-12--11-12-12--3-2-0-----11-12-12--11-12-12-3-2-0-------------|
a-13-14-14--13-14-14--5-4-2-----13-14-14--13-14-14-5-4-2-------------|
d-13-14-14--13-14-14--5-4-2-----13-14-14--13-14-14-5-4-2-------------|
g--------------------------------------------------------------------|
b--------------------------------------------------------------------|
e--------------------------------------------------------------------|

*slide from 11,13,13 to 12,14,14

Verse:
e-11-12-12--11-12-12--3-2-0-----11-12-12--11-12-12-3-2-0-------------|
a-13-14-14--13-14-14--5-4-2-----13-14-14--13-14-14-5-4-2-------------|
d-13-14-14--13-14-14--5-4-2-----13-14-14--13-14-14-5-4-2-------------|
g--------------------------------------------------------------------|
b--------------------------------------------------------------------|
e--------------------------------------------------------------------|
    I gotta hide,              I gotta run
(*remember to slide the 11,13,13, into the 12,14,14)

e--5-5-5-5-5-5-5---3-2-0-------11-12-12-11-12-12-3-2-0---------|
a--7-7-7-7-7-7-7---5-4-2-------13-14-14-13-14-14-5-4-2---------|
d--7-7-7-7-7-7-7---5-4-2-------13-14-14-13-14-14-5-4-2---------|
g--------------------------------------------------------------|
b--------------------------------------------------------------|
e--------------------------------------------------------------|
    Try suicide                well that ain't no fun

Chorus:

e---12-12--7-7-----9--7---5---7--7------11-12-12--11-12-12----------|
a---14-14--9-9----11--9---7---9--9------13-14-14--13-14-14----------|
d---14-14--9-9----11--9---7---9--9------13-14-14--13-14-14----------|
 Oh  you   won't  ev--er  say that it's   so

e--12-12--7-7----9--7-7-7---5---2---2-0----------|
a--14-14--9-9---11--9-9-9---7---4---4-2----------|
d--14-14--9-9---11--9-9-9---7---4---4-2----------|
  You're   in  love  and   I'm  in trouble

Bridge:
e-7---9-11-12-12-11-12-12---7------9-11-12-12-11-12-12----|
a-9--11-13-14-12-13-14-14---9-----11-13-14-12-13-14-14----|
d-9--11-13-14-14-13-14-14---9-----11-13-14-14-13-14-14----|
 I'm in                   You're  in

e-7---9-11-12-12-11-12-12---7------9-11-12-12-11-12-12----|
a-9--11-13-14-12-13-14-14---9-----11-13-14-12-13-14-14----|
d-9--11-13-14-14-13-14-14---9-----11-13-14-14-13-14-14----|
 I'm in                    You're in

e---3-3----3-2-0----------------|
a---5-5----5-4-2----------------|
d---5-5----5-4-2----------------|
   Trouble

Verse:
e-11-12-12--11-12-12--3-2-0-----11-12-12--11-12-12-3-2-0-------------|
a-13-14-14--13-14-14--5-4-2-----13-14-14--13-14-14-5-4-2-------------|
d-13-14-14--13-14-14--5-4-2-----13-14-14--13-14-14-5-4-2-------------|
g--------------------------------------------------------------------|
b--------------------------------------------------------------------|
e--------------------------------------------------------------------|
 I gotta hide,                  I better run

e--5-5-5-5-5-5-5---3-2-0-------11-12-12-11-12-12-3-2-0---------|
a--7-7-7-7-7-7-7---5-4-2-------13-14-14-13-14-14-5-4-2---------|
d--7-7-7-7-7-7-7---5-4-2-------13-14-14-13-14-14-5-4-2---------|
g--------------------------------------------------------------|
b--------------------------------------------------------------|
e--------------------------------------------------------------|
  I'll try suicide,            no no no that ain't no fun

Chorus:

e---12-12--7-7-----9--7---5---7--7------11-12-12--11-12-12----------|
a---14-14--9-9----11--9---7---9--9------13-14-14--13-14-14----------|
d---14-14--9-9----11--9---7---9--9------13-14-14--13-14-14----------|
    You    won't  ev--er let  me         go

e--12-12--7-7----9--7-7-7---5---2---2-0----------|
a--14-14--9-9---11--9-9-9---7---4---4-2----------|
d--14-14--9-9---11--9-9-9---7---4---4-2----------|
  You're  in   love and    I'm in  trouble
Related for Im In Trouble tab