Song name
# A B C D E F G H I J K L M N O P Q R S T U V W X Y Z

Replica - Prva Pa Ljubavna tab

Replica - Prva pa ljubavna

Intro:

Dm F C G

5-----5----------------------------------------3------3-----|
-6-----6------10-----10-----8------8-------------3------3---|
--7-----7-------10-----10-----9------9-------------4------4-|
------------------10-----10-----10-----10-------------------|
------------------------------------------------------------|
----------------------------- ------------------------------|


Dm F	 C	 G
Ponovo sam, sve je isto kao jucer i kao svaki dan
Dm F	 C	 G*
jos uvijek ziv,pocinjem prihvacati da za sve sam sam kriv
Dm F	 C	 G
zasto sada nije kraj mene, ne znam niti sam
Dm	 F	 C	G
zasto sam bio takva budala
Dm
bolje da se ne sjecam
Dm
bolje da se ne sjecam

i sada mi prolaze dani kao prije
samo je nesto drukcije
nesto nedostaje
dan kao svaki drugi dan
ni sretan niti nesretan
ne jedem i ne spavam

nikad joj nisam bio nista, nista vise od
obicnog dobrog prijatelja
a to je bas ono sto nisam htio
i tako sam se trudio, nista nisam dobio
rekla je mozda jednog dana
to nitko znati ne moze i nikad nezna se
a do tada tko zna sto ce biti, mozda i vrijeme ce me ubiti
a nju mi nikad nece vratiti...

ponovo sam, neprestano razmisljam
jeli moglo biti drukcije?
jos uvijek ziv, makar ni u to nisam siguran,
a nista nemogu promjeniti
nemogu promjeniti


nikad joj nisam bio nista, nista vise od
obicnog dobrog prijatelja
a to je bas ono sto nisam htio
i tako sam se trudio, nista nisam dobio
rekla je mozda jednog dana
to nitko znati ne moze i nikad nezna se
a do tada tko zna sto ce biti, mozda i vrijeme ce me ubiti
a nju mi nikad nece vratiti...

od svega sto je ona dala
jos samo bol je ostala
ja ostao sam sam, napola mrtav, pretrgan
sjecam se jos onih njenih rijeci
i one uvijek ce me boljeti
i one uvijek ce se vracati
u snove uvijek ce se vracati..

Dm F C G*

5-----5--------------------------------------12------12-----|
-6-----6------10-----10-----8------8-----------12------12---|
--7-----7-------10-----10-----9------9-----------12------12-|
------------------10-----10-----10-----10-------------------|
------------------------------------------------------------|
----------------------------- ------------------------------|
Tap to rate this tab
 
# A B C D E F G H I J K L M N O P Q R S T U V W X Y Z