Guitaretab - guitar tabs
Song name
# A B C D E F G H I J K L M N O P Q R S T U V W X Y Z

Repo The Genetic Opera - Legal Assassin tab

Song: Legal Assassin

Artist: Repo! The Genetic Opera

     This is my first tab, hot off the meat truck! Hopefully its legible.
Have fun with Legal Assassin and go forth and spread Repo!


Intro (x4)
E|------------------------------------------------------------------------|
B|------------------------------------------------------------------------|
G|--9---9--7-7-7----------------------------------------------------------|
D|--9---9--7-7-7----------------------------------------------------------|
A|--7---7--5-5-5----------------------------------------------------------|
E|------------------------------------------------------------------------|

After the bass and singing this part comes in
E|---------------------------------------------------------------------|
B|---------------------------------------------------------------------|
G|------7-7-7-7---7-7-7-7---7-8---8----7-7-7-7---7-7-7-----------------|
D|------7-7-7-7---7-7-7-7---7-8---8----7-7-7-7---7-7-7-----------------|
A|------5-5-5-5---5-5-5-5---5-6---6----5-5-5-5---5-5-5-----------------|
E|---------------------------------------------------------------------|
                    assassin murderer monster!

more Singing n Bass then this
E|--------------------------------------------------------------------------|
B|--------------------------------------------------------------------------|
G|--7-7-7-7----7-7-7-7----7-8---8----7-7-7-7----7-7-7-7----7-8---8----------|
D|--7-7-7-7----7-7-7-7----7-8---8----7-7-7-7----7-7-7-7----7-8---8----------|
A|--5-5-5-5----5-5-5-5----5-6---6----5-5-5-5----5-5-5-5----5-6---6----------|
E|--------------------------------------------------------------------------|
 Alooooooooooooooooooooooooooooooooooooooooooooooooooooooooooooooo...

E|---------------------------------------------------------------------------|
B|---------------------------------------------------------------------------|
G|--7--5--7--5---7-8-10----7-7-7-7----7-7-7-7-7------------------------------|
D|--7--5--7--5---7-8-10----7-7-7-7----7-7-7-7-7------------------------------|
A|--5--3--5--3---5-6-8-----5-5-5-5----5-5-5-5-5------------------------------|
E|---------------------------------------------------------------------------|
 ...hoooooooooooooone! (very alone)


             Do this a buch of times.          The chords in this part are
E|-------7-------7--------7--------7------------0----2----0------------------|
B|------5-------5--------5--------5-------------1----3----0------------------|
G|----------------------------------------------0----2----0------------------|
D|----5-------5--------5---------5--------------2----4----2------------------|
A|---7-------7--------7---------7---------------3----5----2------------------|
E|--------------------------------------------------------0------------------|
                                                C    Dm   Em

[ Tab from: http://www.guitaretab.com/r/repo-the-genetic-opera/191517.html ]
E|---------------------------------------------------------------------|
B|---------------------------------------------------------------------|
G|--9-9-9-9-9-9-9-9-9-9-9-9-9-9-9-9----9-9-9-9---9-9-9-----------------|
D|--9-9-9-9-9-9-9-9-9-9-9-9-9-9-9-9----9-9-9-9---9-9-9-----------------|
A|--7-7-7-7-7-7-7-7-7-7-7-7-7-7-7-7----7-7-7-7---7-7-7-----------------|
E|---------------------------------------------------------------------|
   I   am   only   living   out  a     Lie

E|-------------------------------------------------------------|
B|-------------------------------------------------------------|
G|--9-9-9-9---7-7------------4-9-9-9-9--7-7--------------------|
D|--9-9-9-9---7-7--5--7--5-7---9-9-9-9--7-7--5--7--5-4---------|
A|--7-7-7-7---5-5--------------7-7-7-7--5-5------------7-------|
E|-------------------------------------------------------------|
shilo can never leave...


E|-------------------------------------------------------------|
B|-------------------------------------------------------------|
G|--9-9-9-9---7-7------------4-9-9-9-9--7-7--------------------|
D|--9-9-9-9---7-7--5--7--5-7---9-9-9-9--7-7--5--7--5-4---------|
A|--7-7-7-7---5-5--------------7-7-7-7--5-5------------7-------|
E|-------------------------------------------------------------|


E|----------------------------------------------------------------------|
B|----------------------------------------------------------------------|
G|--7-7-7-7----7-7-7-7----7-8---8----7-7-7-7----7-7-7-7----7-8---8------|
D|--7-7-7-7----7-7-7-7----7-8---8----7-7-7-7----7-7-7-7----7-8---8------|
A|--5-5-5-5----5-5-5-5----5-6---6----5-5-5-5----5-5-5-5----5-6---6------|
E|----------------------------------------------------------------------|

E|--------------------------------------------------------------------------|
B|--------------------------------------------------------------------------|
G|--7--5--7--5---7-8-10----7-7-7-7----7-7-7---------------------------------|
D|--7--5--7--5---7-8-10----7-7-7-7----7-7-7---------------------------------|
A|--5--3--5--3---5-6-8-----5-5-5-5----5-5-5---------------------------------|
E|--------------------------------------------------------------------------|


     This again                             With these
E|-------7-------7--------7--------7--------0----2----0----------------------|
B|------5-------5--------5--------5---------1----3----0----------------------|
G|------------------------------------------0----2----0----------------------|
D|----5-------5--------5---------5----------2----4----2----------------------|
A|---7-------7--------7---------7-----------3----5----2----------------------|
E|----------------------------------------------------0----------------------|
    Years roll by without you Marni...      C    Dm   Em


  And then its this for the rest of the song
E|---------------------------------------------------------------------------|
B|---------------------------------------------------------------------------|
G|---------------------------------------------------------------------------|
D|--2--2--3-3--2--2--3-3--2--2--3-3------------------------------------------|
A|--2--2--3-3--2--2--3-3--2--2--3-3------------------------------------------|
E|--0--0--1-1--0--0--1-1--0--0--1-1------------------------------------------|


Tabed by: Iggy Stardust (aka DaArbiter)

Official Repo site:
http://www.repo-opera.com/
Related for Legal Assassin tab
Advertisement will be closed in 10 seconds