Song name
# A B C D E F G H I J K L M N O P Q R S T U V W X Y Z

Republica - Ready To Go tab

-------------------------------------------------------------------------------
			     Ready To Go - Republica
-------------------------------------------------------------------------------
Tabbed by:Denny
Email:Guitar_razor777@yahoo.com

Tuning:Standard

e|---------------------------------------------------------------------------|
B|----3--3--3--3--(3)-(3)-----3--3--3--3--(3)-(3)-----3--3--3--3--(3)-(3)----|
G|----2--2--2--2--(2)-(2)--0--0--0--0--0--(0)-(0)-----0--0--0--0--(0)-(0)----|
D|----0--0--0--0--(0)-(0)--0--2--2--2--2--(2)-(2)--0--0--0--0--0--(0)-(0)----|
A|----------------------------0--0--0--0--(0)-(0)--0--1--1--1--1--(1)-(1)----|
E|---------------------------------------------------------------------------|

e|---------------------------------------------------------------------------|
B|-------3--3--3--3--(3)-(3)-------------------------------------------------|
G|-------0--0--0--0--(0)-(0)-------------------------------------------------|
D|----0--0--0--0--0--(0)-(0)--0----------------------------------------------|
A|----0--3--3--3--3--(3)-(3)--0----------THEN-REPEAT-THREE-TIMES-------------|
E|---------------------------------------------------------------------------|




| /  slide up
| \  slide down
| h  hammer-on
| p  pull-off
| ~  vibrato
| +  harmonic
| x  Mute note
===============================================================================

 
 
 
 
 
 
 
 
 
 
 
 
 
Tap to rate this tab
# A B C D E F G H I J K L M N O P Q R S T U V W X Y Z