Song name
# A B C D E F G H I J K L M N O P Q R S T U V W X Y Z

Republik - Hanya Ingin Tau Tahu tab

Help us improve GuitareTab! Take a short survey!
Artist	: Republik
Song	: Hanya Ingin Tau
Made by	: Est
Email	: Iam_mrs_L@yahoo.com

Tuning: Standart


e|--------------------------------------------5-3-2-----|
B|-----0---1---3-----0---1---3------0---3---0-----------|
G|---0---0---0-----0---0---0------4---4---4-------------|
D|------------------------------------------------------|
A|------------------------------2-----------------------|
E|-3-------------3--------------------------------------|

e|-------------0----------------0----------2-------2~---|
B|-----1---3-----1------1---3----------3-----3---3-3~---|
G|---0---0---0--------0---0---0------2---2-----2---2~---|
D|---------------------------------0---------------0~---|
A|-3----------------3-----------------------------------|
E|------------------------------------------------------|





| /  slide up
| \  slide down
| h  hammer-on
| p  pull-off
| ~  vibrato
| +  harmonic
| x  Mute note
Related for Hanya Ingin Tau Tahu tab