Song name
# A B C D E F G H I J K L M N O P Q R S T U V W X Y Z

Repvblik - Sandiwara Cinta tab

REPVBLIK - Sandiwara Cinta



Key:

^  - bend
^^ - full bend
h  - hammer on
p  - pull off
r  - release bend
/  - slide down
\  - slide up
~  - vibrato
() - finger tap



Solo:


    C              D                G               Am                     
e|------------------------------------------------------------------|
B|--------------------------------------------------10^^r--10^^r----|
G|---------------------7-7---5p4------------------------------------|
D|------5-5~---7p5-7/9-----------5/7-5~-----------------------------|
A|--5h7-----------------------------------3p2-----------------------|
E|--------------------------------------------3~--------------------|



         D                   G                           C
e|------------10-------------------------12-15~---17^^r--15~------|
B|--10p8-10^^----10^^r--8h10-8~----12-15--------------------------|
G|----------------------------------------------------------------|
D|----------------------------------------------------------------|
A|----------------------------------------------------------------|
E|----------------------------------------------------------------|




Guitar Tabs by rizalwahap
Tap to rate this tab
# A B C D E F G H I J K L M N O P Q R S T U V W X Y Z