Song name
# A B C D E F G H I J K L M N O P Q R S T U V W X Y Z

Reset - Let Me Go tab

Help us improve GuitareTab! Take a short survey!
e|--------------------------------------------------------------------------|
B|--------------------------------------------------------------------------|
G|-----3--5---3x------------------------------------------------------------|
D|-3---3--5------------3----------------------------------------------------|
A|-3---1--3------------3----------------------------------------------------|
E|-1-------------------1--let ring------------------------------------------|

bass line ....  after
e|--------------------------------------------------------------------------|
B|--------------------------------------------------------------------------|
G|-3-3--5-----5--3--7---------5----3-3--5------5--3--5------5--3------------|
D|-3-3--5--3--5--3--7-8-7-8---5----3-3--5---3--5--3--5---3--5--3------------|
A|-1-1--3--3--3--1--5---------3----1-1--3---3--3--1--3---3--3--1------------|
E|---------1--------------------------------1------------1------------------|

let me go......
e|----------------------------------------------------------------------------|
B|----------------------------------------------------------------------------|
G|--7---5---3--2------7--5--------7--5--3--2------7--5---10--9-7-5------------|
D|--7---5---3--2------7--5--3-----7--5--3--2------7--5---10--9-7-5------------|
A|--5---3---1--0------5--3--3-----5--3--1--0------5--3---8---7-5-3--1-3-1-3-0-|
E|--------------------------1-------------------------------------------------|

last night when...
e|--------------------------------------------------------------------------|
B|--------------------------------------------------------------------------|
G|-------------5---7----------3-5-----5--3--7--------5----------------------|
D|-3---7---8---5---7-8-7-8----3-5--3--5--3--7-8-7-8--5----------------------|
A|-3---7---8---3---5----------1-3--3--3--1--5--------3----------------------|
E|-1---5---6-----------------------1----------------------------------------|

solo
e|----8-8-8-8--5-5-5-6-5-----10-8--8-10-8-10-8-10-8-10--12-13-15---------------|
B|------------------------6--------------------------------------13------------|
G|-----------------------------------------------------------------------------|
D|-----------------------------------------------------------------------------|
A|-----------------------------------------------------------------------------|
E|----------------------------------------------------------the other part ?---|

 				don't go out to play...    i can't stand this
e|--------------------------------------------------------------------------|
B|--------------------------------------------------------------------------|
G|--------------------------------------------------------------------------|
D|-3----------4x--------3---7--8--10--8--7--5------3--7--8--10--------------|
A|-3--------------------3---7--8--10--8--7--5------3--7--8--10--------------|
E|-1-let ring ----------1---5--6--8---6--5--3------1--5--6--8---------------|

but when i get....
e|--------------------------------------------------------------------------|
B|--------------------------------------------------------------------------|
G|-----2--3--------------------2x-------------------------------7--5--------|
D|--3--2--3--2-2-3-2-2-2-3-2------------------3----3---x---3----7--5--------|
A|--3--0--1-----------------------------------3----3---x---3----5--3--------|
E|--1-----------------------------------------1----1---x---1----------------|

please understand that .....
e|---------------------------------------------------------------------------|
B|---------------------------------------------------------------------------|
G|-10--10--10-----2x--3--7--3--5---ALL PART 2 TIMES--------------------------|
D|-10--10--10-10------3--7--3--5-------------------------------------------3-|
A|-8---8---8--10------1--5--1--3---------------------CHORUS -+END--1-3-1-0-3-|
E|------------8------------------------------------------------------------1-|
Related for Let Me Go tab