Song name
# A B C D E F G H I J K L M N O P Q R S T U V W X Y Z

Reset - Everyday tab

LEGEND: . = Palm Mute                                By: Derek Lockrey
        / = Slide
        h = Hammer On


 INTRO:
e|------------------------------------------------------------|
B|------------------------------------------------------------|
G|-7--777777---------------------777777-----------------------|
D|-7--777777--7--5------8888888--777777--7-5------------------|
A|-5--555555---55-55-8--8888888--555555------8-88888-7-3-5----|
E|----------------------6666666-------------------------------|
      ......   .. ..    .......

 INTRO: (Con't)
e|-------5-3---6666-5h6h5/3--3h5h3/1--------5-3-----------------|
B|-33333-----6------------------------33333-----6-1111--6-5/----|
G|--------------------------------------------------------------|
D|--------------------------------------------------------------|
A|--------------------------------------------------------------|
E|--------------------------------------------------------------|

  VERSE:
e|------------------------------      ------------------------------------|
B|------------------------------      ------------------------------------|
G|-77777777---------------------  X4  -101010------10---------------------|
D|-77777777-8888888------------- <--  -101010-1010-10-10-8888-10101010----|
A|-55555555-8888888-7---8--7----      -8-8-8--1010-8--10-8888-10101010----|
E|----------6666666--88--8------      --------8-8-----8--6666-8-8-8-8-----|
                      .. .                                ...   . . .

  CHORUS:
e|---------------------------------|----------------------------------------|
B|---------------------------------|----------------------------------------|
G|-7~-10----2-----------X4---------|-77777--------------77777---------------|
D|-7~-10-10-2----------------------|-77777-88888--------77777-88888---------|
A|-5~-8--10-0---8--8-8---10--10-10-|-55555-88888-7--8-7-55555-88888-7--7----|
E|-------8----66-66-6--88--88--8---|-------66666--88-8--------66666--88-----|
              .. .. .  ..  ..  .                  .. .               ..

 SOLO:
e|-------------------------------------------------------------|
B|-------------------------------------------------------------|
G|-10101010--------------------7777----------------------------|
D|-10101010-7-8-10-8-7---------7777-8888787--101010------------|
A|-8-8-8-8-------------10-8-7--5555--------8-101010-7--8-10----|
E|-------------------------------------------8-8-8---88-8------|
                                                     .. .

 SOLO: (Con't)
e|------------------------------------------------------------------------|
B|------------------------------------------------------------------------|
G|-------10101010-------------------7777----------------------------------|
D|-88888-10101010-7-8-10-8-7--------7777-8888787--101010---------88888----|
A|-88888-8-8-8-8-------------10-8-7-5555--------8-101010-7--8-10-88888----|
E|-66666------------------------------------------8-8-8---88-8---66666----|
                                                          .. .

 ENDING:
e|------------------|
B|------------------|                Listen to the song for
G|-7~-10-9-----7----|                timing and you should pick
D|-7~-10-9-10--7----|                it up quickly
A|-5~-8--7-10--5----|
E|---------8--------|
Tap to rate this tab
# A B C D E F G H I J K L M N O P Q R S T U V W X Y Z