Song name
# A B C D E F G H I J K L M N O P Q R S T U V W X Y Z

Reset - Concern tab

Help us improve GuitareTab! Take a short survey!
===========================================================
	Artist: Reset
	  Song: Concern
	 Album: No Worries
===========================================================

Tabbed: TheMutts @ Ultimate-Guitar.com
Email: st_jimmy_themutts@yahoo.com

Tuning: Standard

----------------------
Intro/Verse Riff
----------------------

(strumming pattern not shown, but these are the chords)
|------------------|
|------------------|
|--5-------7-------|repeat as needed
|--5---7---7---7---|
|--3---7---5---7---|
|------5-------5---|


----------------------
Prechorus Riff
----------------------

same chords different strumming pattern

solo between riffs

|---------|
|--4-2-0--|
|---------|
|---------|
|---------|
|---------|


----------------------
Chorus Riff
----------------------

|--------------|
|--------------|
|--------7--5--|
|--7--9--7--5--|
|--7--9--5--3--|
|--5--7--------|

Thats it, enjoy.
Related for Concern tab