Song name
# A B C D E F G H I J K L M N O P Q R S T U V W X Y Z

Reset - I Know tab

Song: I Know
Band: Reset
Album: No Limits
Label: 2112 Records
Written and Performed By: Reset
Tabbed By: ultimatelefty

Well this is a short but kickass song, I tried to get the strum pattern in there, 
but if it's not correct, I'm 100% sure the chords are!
Please Rate, Comment, and enjoy!

What Self-Defense is your life?

Intro:

e|-----------------------------------------------------------------------------|
B|-----------------------------------------------------------------------------|
G|-7-7-7-777-7-7-7-77-3-3-3-333-3-3-3-33--------------------5-5-5-555-5-5-5-55-|
D|-7-7-7-777-7-7-7-77-3-3-3-333-3-3-3-33-3-3-3-333-3-3-3-33-5-5-5-555-5-5-5-55-|
A|-5-5-5-555-5-5-5-55-1-1-1-111-1-1-1-11-3-3-3-333-3-3-3-33-3-3-3-333-3-3-3-33-|
E|---------------------------------------1-1-1-111-1-1-1-11--------------------|


Verse:

e|-----------------------------------------------------------------------------|
B|-----------------------------------------------------------------------------|
G|-7-7-7-777-7-7-7-77-3-3-3-333-3-3-3-33--------------------5-5-5-555-5-5-5-55-|
D|-7-7-7-777-7-7-7-77-3-3-3-333-3-3-3-33-3-3-3-333-3-3-3-33-5-5-5-555-5-5-5-55-|
A|-5-5-5-555-5-5-5-55-1-1-1-111-1-1-1-11-3-3-3-333-3-3-3-33-3-3-3-333-3-3-3-33-|
E|---------------------------------------1-1-1-111-1-1-1-11--------------------|


Chorus:

e|---------------------------------------------------------------------------------|
B|---------------------------------------------------------------------------------|
G|-2-2-2-222-2-2-2-222-3-3-3-333-3-3-3-333---------------------5-5-5-555-5-5-5-555-|
D|-2-2-2-222-2-2-2-222-3-3-3-333-3-3-3-333-3-3-3-333-3-3-3-333-5-5-5-555-5-5-5-555-|
A|-0-0-0-000-0-0-0-000-1-1-1-111-1-1-1-111-3-3-3-333-3-3-3-333-3-3-3-333-3-3-3-333-|
E|-----------------------------------------1-1-1-111-1-1-1-111---------------------|


e|---------------------------------------------------------------------------------|
B|---------------------------------------------------------------------------------|
G|-2-2-2-222-2-2-2-222-3-3-3-333-3-3-3-333---------------------5-5-5-555-5-5-5-555-|
D|-2-2-2-222-2-2-2-222-3-3-3-333-3-3-3-333-3-3-3-333-3-3-3-333-5-5-5-555-5-5-5-555-|
A|-0-0-0-000-0-0-0-000-1-1-1-111-1-1-1-111-3-3-3-333-3-3-3-333-3-3-3-333-3-3-3-333-|
E|-----------------------------------------1-1-1-111-1-1-1-111---------------------|

e|----------|
B|----------|
G|----------|
D|-3-(Hold)-|
A|-3--------|
E|-1--------|

Tell me when
You knew everything
I can't even remember yesterday (YESTERDAY!)
The clock is ticking and soon we'll be dead (WE'LL BE DEAD!)
My mind is set
I know I know nothing
The clock is ticking and soon we'll be dead (WE'LL BE DEAD!)
My mind is set and I know
I know nothing and so do you


-If I went to a Simple Plan Concert, I'd get Pierre Bouvier to sign my Reset CD

************************************

| /   slide up
| \   slide down
| h   hammer-on
| p   pull-off
| ~   vibrato
| +   harmonic
| x   Mute note
| b   Bend
| pb  Pre-bend
| br  Bend release
| pbr Pre-bend release
| brb Bend release bend

************************************
Tap to rate this tab
# A B C D E F G H I J K L M N O P Q R S T U V W X Y Z