Song name
# A B C D E F G H I J K L M N O P Q R S T U V W X Y Z

Reset - Wide Open tab

Song: Wide Open
Band: Reset
Album: No Limits
Label: 2112 Records
Written By: Reset
tabbed by: ultimatelefty

Well this is a short but kickass song, I tried to get the strum pattern in there, 
but if it's not correct in some parts, I'm 100% sure the chords are!
Please Rate, Comment, and enjoy!

If I went to a Simple Plan concert and met Pierre Bouvier, 
I'd get him to sign my Reset CD

Intro Chorus:

e|-------------------|-------------------------|
B|-------------------|-------------------------|
G|---------5-5555555-|---------5-5-------------|
D|-5-5-33x-5-5555555-|-5-5-33x-5-5-2-2-3-3-2-2-|
A|-5-5-33x-3-3333333-|-5-5-33x-3-3-------------|
E|-3-3-11x-----------|-3-3-11x-----------------|x2

Verse:

e|-------------------------------|------------------------|
B|-------------------------------|------------------------|
G|---------------5-5-5-5-5-5-5-5-|---------------55779977-|
D|-5-5-5-5-3-3-x-5-5-5-5-5-5-5-5-|-5-5-5-5-3-3-x-55779977-|
A|-5-5-5-5-3-3-x-3-3-3-3-3-3-3-3-|-5-5-5-5-3-3-x-33557755-|
E|-3-3-3-3-1-1-x-----------------|-3-3-3-3-1-1-x----------|
PM . . . . . .   . . . . . . . .   . . . . . .

e|-------------------------------|--------------------|
B|-------------------------------|--------------------|
G|---------------5-5-5-5-5-5-5-5-|---------------5555-|
D|-5-5-5-5-3-3-x-5-5-5-5-5-5-5-5-|-5-5-5-5-3-3-x-5555-|
A|-5-5-5-5-3-3-x-3-3-3-3-3-3-3-3-|-5-5-5-5-3-3-x-3333-|
E|-3-3-3-3-1-1-x-----------------|-3-3-3-3-1-1-x------|
PM . . . . . .   . . . . . . . .   . . . . . . 

Chorus:

e|-------------------|-------------------------|
B|-------------------|-------------------------|
G|---------5-5555555-|---------5-5-------------|
D|-5-5-33x-5-5555555-|-5-5-33x-5-5-2-2-3-3-2-2-|
A|-5-5-33x-3-3333333-|-5-5-33x-3-3-------------|
E|-3-3-11x-----------|-3-3-11x-----------------|

e|-------------------|-------------------|
B|-------------------|-------------------|
G|---------5-5555555-|---------5-5555555-|
D|-5-5-33x-5-5555555-|-5-5-33x-5-5555555-|
A|-5-5-33x-3-3333333-|-5-5-33x-3-3333333-|
E|-3-3-11x-----------|-3-3-11x-----------|

Bridge:

e|----------------------------------|-------------------|-------------------|
B|----------------------------------|-------------------|-------------------|
G|-7777777777777777-----------------|---------5-5555555-|---------5-5555555-|
D|-77777777777777773333333333333333-|-5-5-33x-5-5555555-|-5-5-33x-5-5555555-|
A|-55555555555555553333333333333333-|-5-5-33x-3-3333333-|-5-5-33x-3-3333333-|
E|-----------------1111111111111111-|-3-3-11x-----------|-3-3-11x-----------|

e|----------------------------------|--------------------------------|
B|----------------------------------|--------------------------------|
G|-7777777777777777-----------------|-555555--555555-----------------|
D|-77777777777777773333333333333333-|-555555--555555--55555555555555-|
A|-55555555555555553333333333333333-|-333333--333333--55555555555555-|
E|-----------------1111111111111111-|-----------------33333333333333-|

e|----------------------------------------------|
B|----------------------------------------------|
G|-777777--777777--1010101010101010121212121212-|
D|-777777--777777--1010101010101010121212121212-|
A|-555555--555555---8-8-8-8-8-8-8-8101010101010-|
E|----------------------------------------------|

Outro Chorus:

e|-------------------|-------------------------|
B|-------------------|-------------------------|
G|---------5-5555555-|---------5-5-------------|
D|-5-5-33x-5-5555555-|-5-5-33x-5-5-2-2-3-3-2-2-|
A|-5-5-33x-3-3333333-|-5-5-33x-3-3-------------|
E|-3-3-11x-----------|-3-3-11x-----------------|

e|-------------------|-----------|
B|-------------------|-----------|
G|---------5-5555555-|---------5-|
D|-5-5-33x-5-5555555-|-5-5-33x-5-|
A|-5-5-33x-3-3333333-|-5-5-33x-3-|
E|-3-3-11x-----------|-3-3-11x---|

Lyrics:

Open
Open up your mind
Stand up straight
And everything will be fine

I know you've been alone for a while and you
Tought that it would last
You've got to concentrate
And forget about the past

Open
Open up your mind
Stand up straight
And everything will be fine

I know
The pain your going through
But it's only passing by

And I know
The pains your going through
But please remember
That any time
You can come my way

It's your fault
It's my fault
Who cares
Let's do it all again

Open
Open up your mind
Stand up straight
And everything will be fine

************************************

| /   slide up
| \   slide down
| h   hammer-on
| p   pull-off
| ~   vibrato
| +   harmonic
| x   Mute note
| b   Bend
| pb  Pre-bend
| br  Bend release
| pbr Pre-bend release
| brb Bend release bend

************************************
Tap to rate this tab
# A B C D E F G H I J K L M N O P Q R S T U V W X Y Z