Song name
# A B C D E F G H I J K L M N O P Q R S T U V W X Y Z

Reset - My Dream And I tab

Song:My dream and I
Artist:Reset
Tabbed by:glitterboy

Verse 1
(Bass part)
e|--------------------------------------------------------|
B|--------------------------------------------------------|
G|--------7-7-7-7-4-4-4-4-5-5-5-5---------7-7-7-7-5-5-5-5-|
D|5-5-5-5-7-7-7-7-4-4-4-4-5-5-5-5-5-5-5-5-7-7-7-7-5-5-5-5-|
A|5-5-5-5-5-5-5-5-2-2-2-2-3-3-3-3-5-5-5-5-5-5-5-5-3-3-3-3-|
E|3-3-3-3-------------------------3-3-3-3-----------------|

Verse 2

e|--------------------------------|
B|--------------------------------|
G|--------7-7-7-7-9-9-9-9-5-5-5-5-|
D|5-5-5-5-7-7-7-7-9-9-9-9-5-5-5-5-|
A|5-5-5-5-5-5-5-5-7-7-7-7-3-3-3-3-|
E|3-3-3-3-------------------------|x2

Verse 1

Chorus

e|--------------------------------------------------------|
B|--------------------------------------------------------|
G|9-9-9-9-5-5-5-5-------------------------5-5-5-5---------|
D|9-9-9-9-5-5-5-5-5-5-5-5-4-4-4-4-2-2-2-2-5-5-5-5---------|
A|7-7-7-7-3-3-3-3-5-5-5-5-4-4-4-4-2-2-2-2-3-3-3-3-5-5-5-5-|
E|----------------3-3-3-3-2-2-2-2-0-0-0-0---------3-3-3-3-|

Verse 2

Bridge

e|----------------------------------------------------
B|----------------------------------------------------
G|--------7-7-7-7-4-4-4-4-5-5-5-5---------------------
D|5-5-5-5-7-7-7-7-4-4-4-4-5-5-5-5-5-5-4-4-2-2-5-5-4-4-
A|5-5-5-5-5-5-5-5-2-2-2-2-3-3-3-3-5-5-4-4-2-2-5-5-4-4-
E|3-3-3-3-------------------------3-3-2-2-0-0-3-3-2-2-

e|-----------------------------------------------------
B|-5-8-5-----------------------------------------------
G|5-5---5-5-7-5-4---4-4-4------------------------------
D|---------------5-5-5-5-4-0-7-7-7---------------------
A|----------------------------5-5-5-7777-99-10-9-7-5-3-
E|-----------------------------------------------------

e|----------------------------
B|----------------------------
G|5-5-5-4--4-4-4--------------
D|-5-5-55-5-5-5-4-0-7-7-7-7-7-
A|------------------5-5-5-5-5-
E|----------------------------

Verse 1(pm)
Verse 2
Chorus

e|-------------------|
B|-------------------|
G|7--7--7--7-7--7--7-|
D|7--7--7--7-7--7--7-|
A|5--5--5--5-5--5--5-|
E|-------------------|
     pm pm   pm pm

Chorus(let ring last note)

have fun and let me know your comments!
Tap to rate this tab
 
# A B C D E F G H I J K L M N O P Q R S T U V W X Y Z