Song name
# A B C D E F G H I J K L M N O P Q R S T U V W X Y Z

Resident Hero - Happy Without Me tab

Help us improve GuitareTab! Take a short survey!
Ok I seen RH in concert with Flyleaf and Sick Puppies and they were the Opening band. 
played this song and I went home and listened to it on myspace and figured out how to play it.


Into/Verse

e|----3----3---2h3p2--3---5---3--2h3p2----3---3--2h3-----------3----2-----|
b|-----3----3---------2----3---3-----------3---3-----0---------3----3-----|
g|-------0------------0-----2-----------0---0------------------0----2-----|
d|-0------------------------------------2----------------------0----0-----|
a|-2------------------------------------3----------------------2----------|
E|-3-----------------------------------------------------3-3---3----------|(x2)


Chorus
e|-3---------2-------3---------2--------3-----2------3----3---2-----------|
b|-3---------3-------3---------3--------3-----3------3----3---3-----------|
g|-0---------2-------0---------2--------0-----2------0----0---2-----------|
d|-0---------0-------2---------0--------0-----0------2----0---0-----------|
a|-2-----------------3------------------2------------3----2---------------|
E|-3------------------------------------3-----------------3---------------|


Bridge

e|---2--3------------3--2---3--------------------------------------------|
b|---3--3------------3--3---3--------------------------------------------|
g|---4--0--(x4)------0--2---0--------------------------------------------|
d|---4--2------------2--0---2--------------------------------------------|
a|---2--3------------3------3--------------------------------------------|
E|-----------------------------------------------------------------------|


Then Repeat chorus again.

same thing for the "oohh ohhh oohh" part.

Thanks,
    Aaron                    www.residenthero.net
Related for Happy Without Me tab