Song name
# A B C D E F G H I J K L M N O P Q R S T U V W X Y Z

Resist The Thought - Extermination tab

-----------------------------------------------------------------
                Extermination - Resist The Thought
-----------------------------------------------------------------
www.resistthethought.com

Tabbed by: Kristyn Lee
E-mail: spot_the_village_loony_836@hotmail.com

Tuning: Drop B

0:00 - 0:27
Intro
C#|------------------------------------------------|
G#|------------------------------------------------|
E |------------------------------------------------|
B |------------------------------------------------|
F#|----------------------------------------33------|
B |---1-00-0-00-0-00000-0-1-00-0-00-0-0000---------|
        ..   ..   .....     ..   ..   ....
C#|---------------------------------------------|
G#|---------------------------------------------|
E |---------------------------------------------|
B |---------------------------------------------|
F#|---------------------------------000000------|
B |---1-00-0-00-0-00000-0-1-00-0-00-111111------|
        ..   ..   .....     ..   .. ......
-------------------------------------------------------------------------
0:27
C#|----0~~~-------------|
G#|----3~~~-------------|
E |----2~~~-------------|
B |----0~~~-------------|
F#|----0~~~-------------|
B |----0~~~-------------|

-------------------------------------------------------------------------
0:30 - 0:50
   Play this whole lot x2
C#|-----------------------------------------|
G#|-----------------------------------------|
E |-----------------------------------------|
B |-----------------------------------------|
F#|-----5---5-----------4---4-4h5p4---------|
B |---0---0---0-5-8-5-0---0---------7-------|
      .   .   . . . . .   .         .
C#|-----------------------------------------|
G#|-----------------------------------------|
E |-----------------------------------------|
B |-----------------------------------------|
F#|-----5---5----------------3333330000-----|
B |---0---0---0-5-8-5-111111----------------|
      .   .   . . . .
C#|-----------------------------------------|
G#|-----------------------------------------|
E |-----------------------------------------|
B |-----------------------------------------|
F#|-----5---5-----------4---4-4h5p4---------|
B |---0---0---0-5-8-5-0---0---------7-------|
      .   .   . . . . .   .         .

C#|-----------------------------------------|
G#|-----------------------------------------|
E |-----------------------------------------|
B |--------------------------55552222-------|
F#|-----5---5---------111111----------------|
B |---0---0---0-5-8-5-----------------------|
      .   .   . . . . 
Bend the hell out of that note
C#|---------------------------|
G#|---------------------------|
E |---------------------------|
B |----2222^^^^^^-------------|
F#|---------------------------|
B |---------------------------|

--------------------------------------------------------------------------
Breakdown
0:50 1:17
C#|--0~---------------0~---------------0~---------------------------------|
G#|--3~---------------3~---------------3~---------------------------------|
E |--2~---------------2~---------------2~-----------------8p7p5--5--------|
B |--0~---------------0~---------------0~-----------------------8--8p7p5--|
F#|--0~-0000-0000-000-0~-0000-0000-000-0~-0000-0000-0-0-0-----------------|
B |--0~-0000-0000-000-0~-0000-0000-000-0~-0000-0000-1-1-1-----------------|

---------------------------------------------------------------------------
1:17 - 1:43
C#|------------------------------------------------------------------------|
G#|------------------------------------------------------------------------|
E |------------------------------------------------------------------------|
B |------------------------------------------------------------------------|
F#|-------555555----55555555----555555------888888------88888888----7777---|
B |---5588------5588--------5588------771010------771010--------5588-------|

---------------------------------------------------------------------------
1:43 
Repeat Intro

1:59
Repeat Breakdown
---------------------------------------------------------------------------
2:25  play x2
C#|----------------------------------|
G#|----------------------------------|
E |---7~----15-14-10-12-10-9-10------|
B |---x-----x--x--x--x---x-x-x-------|
F#|---5~---/13-12-8--10--8-7-8-------|
B |----------------------------------|

2:39  solo, LOL i can't tab that! But here's the other part.

C#|------------------------------------------------------|
G#|------------------------------------------------------|
E |------------------------------------------------------|
B |------------------------------------------------------|
F#|-----000---00000000---000---111---11111111---111------|
B |---0-000-0-00000000-0-000-1-111-1-11111111-1-111------|
        ...   ........   ...   ...   ........   ...

Then just repeat the intro riff again. 

************************************

| .   palm mute
| /   slide up
| \   slide down
| h   hammer-on
| p   pull-off
| ~   vibrato
| +   harmonic
| x   Mute note
| b   Bend
| pb  Pre-bend
| br  Bend release
| pbr Pre-bend release
| brb Bend release bend

************************************
Tap to rate this tab
# A B C D E F G H I J K L M N O P Q R S T U V W X Y Z