Song name
# A B C D E F G H I J K L M N O P Q R S T U V W X Y Z

Reuben Morgan - More Than Life tab

Help us improve GuitareTab! Take a short survey!
----------------------------------------------------------------------------
			     More Than Life - Whitley
----------------------------------------------------------------------------
Tabbed by: Breno
Email: brennansmart@hotmail.com
Album: The Submarine


This is my first tab. Please rate and comment with praise/suggestions/abuse where necessary. haha
Make sure you have a listen to the song to get timing right and everything.
thanks for having a look


Tuning: DGCFAd - D Tuning

Chords used:
      Am          F/C          C           G bass note
d|-----------|-----------|-----------|-----------|
A|-----1-----|-----1-----|-----1-----|-----0-----|
F|-----2-----|-----2-----|-----0-----|-----0-----|
C|-----2-----|-----3-----|-----2-----|-----0-----|
G|-----0-----|-----3-----|-----3-----|-----x-----|
D|-----------|-----------|-----------|-----3-----|


  Verse: Repeat x8
d|---------------------------------------------------------------|
A|------1----1----1----1----1----1------0---0--------------------|
F|-----2----2----2----2----0----0------0---0---------------------|
C|----2----2----3----3----2----2------0---0----------------------|
G|---0----0----3----3----3----3----------------------------------|
D|-----------------------------------3---3-----------------------|


  Bridge:    "And we are homeward bound"
d|---------------------------------------------------------------|
A|-------1----1----1----1----1----1----1----1--------------------|
F|------2----2----2----2----2----2----2----2---------------------|
C|-----3----3----3----3----3----3----3----3----------------------|
G|----3----3----3----3----3----3----3----3-----------------------|
D|---------------------------------------------------------------|


  Chorus: (same as verse)   x4
d|---------------------------------------------------------------|
A|------1----1----1----1----1----1------0---0--------------------|
F|-----2----2----2----2----0----0------0---0---------------------|
C|----2----2----3----3----2----2------0---0----------------------|
G|---0----0----3----3----3----3----------------------------------|
D|-----------------------------------3---3-----------------------|


  Solo: Guitar one continues playing verse, Guitar 2 plays solo
d|-------------------------------------------------------|
A|-------------------------------------------------------|
F|-------------------------------------------------------|
C|----12s14--12-10-12--12s14--12-10----------------------|
G|------------------------------------12~-10-------------|
D|-------------------------------------------------------|

d|-------------------------------------------------------|
A|-------------------------------------------------------|
F|-------------------------------------------------------|
C|----12s14--12-10-12--12s14--12-10-12-----12------------|
G|-------------------------------------------------------|
D|-------------------------------------------------------|

d|-------------------------------------------------------|
A|-------------------------------------------------------|
F|-------------------------------------------------------|
C|----12s14--12-10-12--12s14--12-10----------------------|
G|------------------------------------12~-----10---------|
D|-------------------------------------------------------|

d|-------------------------------------------------------|
A|-------------------------------------------------------|
F|---------------------------12--------------------------|
C|----12s14--12-10-12--12s14----12-----------------------|
G|-------------------------------------------------------|
D|-------------------------------------------------------|

d|-------------------------------------------------------|
A|-------------------------------------------------------|
F|-------------------------------------------------------|
C|---10-10-10-10-10-10-10-10-10-10-10-10-9s10--9-7-------|Repeat 2 or 3 times
G|-------------------------------------------------10----|
D|-------------------------------------------------------|
     PM PM PM PM PM PM PM PM PM PM PM PM 

d|-----------------------------------------------------------|
A|-----------------------------------------------------------|
F|-----------------------------------------------------------|
C|--12s14-12-10--12s14-12-10--12s14-12-10--12s14-12-10--14~--|
G|-----------------------------------------------------------|
D|-----------------------------------------------------------|



| /  slide up
| \  slide down
| h  hammer-on
| p  pull-off
| ~  vibrato
| +  harmonic
| x  Mute note
| PM Palm Mute
============================================================================
Related for More Than Life tab