Song name
# A B C D E F G H I J K L M N O P Q R S T U V W X Y Z

Reuben - A Short History Of Nearly Everything tab

Help us improve GuitareTab! Take a short survey!
A SHORT HISTORY OF NEARLY EVERYTHING

BASS INTRO

VERSE 1
Eb|---------12-----||
Bb|-----10---------||
Gb|-12-------------||
Db|----------------||
Ab|----------------||
Db|----------------||

Do you remember our best adventure?
Stealing off to climb Westers Hill?
Creeping out of the house at midnight..
Do you remember on the way down after?
Cut my leg wide open on the fence, 
I cried, i cried, i cried...

Eb|----------------|----------------||
Bb|----------------|----------------||
Gb|----------------|----------------||
Db|7-0-3-5-7-0-3-5-|7-0-3-5-7-0-3-5-||  X8 
Ab|7-0-3-5-7-0-3-5-|7-0-3-5-7-0-3-5-||
Db|7-0-3-5-7-0-3-5-|7-0-3-5-7-0-3-5-||
 PM. . . . . . . .  . . . . . . . .

It was just a hill we climbed
That night, but it felt like

BRIDGE 1
Eb|--3333----3333-3-3-||
Bb|--5555----5555-6-5-||
Gb|--5555----5555-5-5-||
Db|0-0000--0-0000-0-0-||
Ab|0-------0----------||
Db|0-------0----------||

Eb|--3333----3333-----||
Bb|--5555----5555-----||
Gb|--5555----5555-----||
Db|0-0000--0-0000-----||
Ab|0-------0--------xx||
Db|0-------0--------xx||


Eb|--3333----3333-3-3-||
Bb|--5555----5555-6-5-||
Gb|--5555----5555-5-5-||
Db|0-0000--0-0000-0-0-||
Ab|0-------0----------||
Db|0-------0----------||

The top of the world, 
'I'm on top of the world, ma!'

Eb|--3333----3333-----||
Bb|--5555----5555-----||
Gb|--5555----5555-----||
Db|0-0000--0-0000-----||
Ab|0-------0----------||
Db|0-------0----------||

'Top of the world!'
I'm on top of the world...

VERSE 2

Eb|----------------|----------------||
Bb|----------------|----------------||
Gb|-5-5-5---5-5-5--|-5-5-5---5-5-5--||
Db|----------------|----------------||
Ab|----------------|----------------||
Db|----------------|----------------||

'Our teachers had faith in their lessons, their doctrine'

Eb|----------------|----------------||
Bb|----------------|----------------||
Gb|--5-5-5---5-5-5-|--5-5-5---5-5-5-||
Db|00------00------|00------00------||
Ab|00------00------|00------00------||
Db|00------00------|00------00------||

'These facts are unreliable, these cracks are undeniable...'

Eb|--0-0-0---0-0-0-|--0-0-0---0-0-0-||
Bb|--3-3-3---3-3-3-|--3-3-3---3-3-3-||
Gb|--5-5-5---5-5-5-|--5-5-5---5-5-5-||
Db|000-0-0-000-0-0-|000-0-0-000-0-0-||
Ab|00------00------|00------00------||
Db|00------00------|00------00------||

'Undeniable'

Eb|--0-0-0---0-0-0-|--0-0-0---0-0-0-||
Bb|--3-3-3---3-3-3-|--3-3-3---3-3-3-||
Gb|--5-5-5---5-5-5-|--5-5-5---5-5-5-||
Db|000-0-0-000-0-0-|000-0-0-000-0-0-||
Ab|00------00------|00------00------||
Db|00------00------|00------00------||


PIANO INTERLUDE
You said...
Do you feel the warmth beneath your feet?
That is because the earth is so very old, 
They should have warned us years ago, 
We should have been told...

Eb|----------------|----------------||
Bb|----------------|----------------||
Gb|5---55-5----55--|-5---55--2------||
Db|5---55-3----33--|-5---55--3------||
Ab|3---3301----110-|-3---330-1------||
Db|----------------|---------0------||

That secret kept, by Mum and Dad, 
Which covered everything...

Eb|----------------|----------------||
Bb|----------------|----------------||
Gb|-5---55-5---55--|-5---55--2------||
Db|-5---55-3---33--|-5---55--3------||
Ab|-3---3301---110-|-3---330-1------||
Db|----------------|---------0------||

'At first it's dark, and then it's light, 
And then it's dark again...'

Eb|----------------|----------------||
Bb|-10----8--------|-6-----5--------||
Gb|----------------|----------------||
Db|---0-0---0-0----|---0-0----------||
Ab|---8-8---7/10---|---7/8----------||
Db|-----0---0-0----|---0-8----------||

Eb|----------------||
Bb|----------------||
Gb|2-2-2-2---0-----||
Db|-------3---3----||
Ab|--------5---3-2-||
Db|-----------------|

Eb|----------------||
Bb|-----1----------||
Gb|0------0--------||
Db|-3------3-------||
Ab|--5------3-2----||
Db|----------------||

Eb|----------------|--------------0--||
Bb|-10-----8-------|-6------5-----5--||
Gb|------0-----5---|---5------5---5--||
Db|------------0---|-----0--------0--||
Ab|----8-----0-----|------------0-0--||
Db|--0-----0-------|-0------------0--||


OUTRO

Eb|3333333333333333|3333333333333333|8-8-8-8-8-8-8-8-|8-8-8-8-8-8-8-8-||
Bb|5555555555555555|5555555555555555|1010101010101010|1010101010101010||
Gb|5555555555555555|5555555555555555|9-9-9-9-9-9-9-9-|1010101010101010||
Db|3333333333333333|0000000000000000|7-7-7-7-7-7-7-7-|8-8-8-8-8-8-8-8-||  X6
Ab|3333333333333333|0000000000000000|7-7-7-7-7-7-7-7-|8-8-8-8-8-8-8-8-||
Db|3333333333333333|0000000000000000|7-7-7-7-7-7-7-7-|8-8-8-8-8-8-8-8-||

You're bleeding, 
But it's alright
We'll stay awake the whole night
'Cause i found a rock in an ancient place
And it's older than the human race
So let's build a fire, a homing light
For astronauts and sattelites

Eb|3333333333333333|3333333333333333|8-8-8-8-8-8-8-8-|1111111111111111||
Bb|5555555555555555|5555555555555555|1010101010101010|3333333333333333||
Gb|5555555555555555|5555555555555555|9-9-9-9-9-9-9-9-|3333333333333333||
Db|3333333333333333|0000000000000000|7-7-7-7-7-7-7-7-|1111111111111111||
Ab|3333333333333333|0000000000000000|7-7-7-7-7-7-7-7-|1111111111111111||
Db|3333333333333333|0000000000000000|7-7-7-7-7-7-7-7-|1111111111111111||

For Scientists with soldier's hearts, 

Eb|1212121212121212|1313131313131313|8-8-8-8-8-8-8-8-||
Bb|1313131313131313|1515151515151515|1010101010101010||
Gb|1212121212121212|1414141414141414|1010101010101010||
Db|1010101010101010|1212121212121212|8-8-8-8-8-8-8-8-||
Ab|1010101010101010|1212121212121212|8-8-8-8-8-8-8-8-||
Db|1010101010101010|1212121212121212|8-8-8-8-8-8-8-8-||

And pioneers of earthly arts...

Eb|----------------|----------------||
Bb|----------------|----------------||
Gb|----------------|----------------||
Db|----------------|----------------||
Ab|----------------|----------------||
Db|7-0-3-5-7-0-3-5-|7-0-3-5-7-0-3-5-||

YEAH!

Eb|----------------|----------------||
Bb|----------------|----------------||
Gb|----------------|----------------||
Db|7-0-3-5-7-0-3-5-|7-0-3-5-7-0-3-5-||  X4
Ab|7-0-3-5-7-0-3-5-|7-0-3-5-7-0-3-5-||
Db|7-0-3-5-7-0-3-5-|7-0-3-5-7-0-3-5-||

Eb|----------------|----------------||
Bb|----------------|----------------||
Gb|----------------|----------------||
Db|7-0-3-5-7-0-3-5-|7-0-3-5-7-0-3-5-||  X8 
Ab|7-0-3-5-7-0-3-5-|7-0-3-5-7-0-3-5-||
Db|7-0-3-5-7-0-3-5-|7-0-3-5-7-0-3-5-||

You, and me, we're dead, in the blink of an eye, 
We're dead, 
We're gone,
We're dead, in a blink of the earth's eye.


Related for A Short History Of Nearly Everything tab