Song name
# A B C D E F G H I J K L M N O P Q R S T U V W X Y Z

Reuben - Whats Good For Me tab

-------------------------------------------------------------------------------
			     SONG NAME - Band Name
-------------------------------------------------------------------------------
Tabbed by:
Email:

Tuning:It's drop D but I'm not sure what the exact tuning is, as the recorded song 
sound as if it's in a full note tune. I tuned my A string by ear to the note played on the 
But for the purpose of this Tab, I'll write as if the song is played in Drop D at concert pitch.

Intro (Palm Mute the first 4)
e|------------------------------5-------5-------5-------5--------------------|
B|------------------------------5-5-----5-5-----5-5-----5-5------------------|
G|-22222-22222-22222-22222----2-------2-------2-------2----------------------|
D|-22222-22222-22222-22222--2-------2-------2-------2------------------------|
A|-00000-00000-00000-00000--0-------0-------0-------0------------------------|
D|---------------------------------------------------------------------------|

Verse:
   'Breakin down the boundaries'                       "I'll deal with this"
e|------5-----5---5---5---5---5---5---5---5---5---5---5-----------6-5--------|
B|------5-----5---5---5---5---5---5---5---5---5---5---5---11-10--------------|
G|--22------------------2---------------2------------------------------------|
D|--22-----44---2---0---2---4---2---0---2---4---2---0---8-------5------------|
A|--00-----44---2---0---0---4---2---0---0---4---2---0---8-------5------------|
D|---------44---2---0-------4---2---0-------4---2---0---8-------5------------|

Chorus:

 "Coz I am a whore of love, I'll fall in love with anyone"
e|-----------------------------0------0------0-----0-------------------------|
B|-----2-----2-----2-----2-----0------0------0-----0-------------------------|
G|------2-----2-----2-----2------3------3------3-----3-----------------------|
D|--00----00----00----00----44-----44-----44-----44--------------------------|
A|--00----00----00----00----44-----44-----44-----44--------------------------|
D|--00----00----00----00----44-----44-----44-----44--------------------------|

    "give me time I will be yours" (2nd guitar)
e|---------------------------------------------------------------------------|
B|---------------------------------------------------------------------------|
G|--7-----9---11-----13------15----------------------------------------------|
D|--x-----x---x------x-------x-----------------------------------------------|
A|--5-----9---9------11------13----------------------------------------------|
D|---------------------------------------------------------------------------|
   "Oh,,,,,how I fell"
e|---------------------------------------------------------------------------|
B|---------------------------------------------------------------------------|
G|---------------------------------------------------------------------------|
D|--9--79-11-0--13-14--------------------------------------------------------|
A|--9--79-11-0--x--x---------------------------------------------------------|
D|--9--79-11-0--11-12--------------------------------------------------------|

Chorus 2:-

   "And in a few years time"
e|---------------------------------------------------------------------------|
B|---------------------------------------------------------------------------|
G|----------3-3-3-3----------3x3x3x3-----------------------------------------|
D|-0-0-0-0--4-4-4-4--0x0x0x0-4x4x4x4-----------------------------------------|
A|-0-0-0-0--4-4-4-4--0x0x0x0-4x4x4x4-----------------------------------------|
D|-0-0-0-0--4-4-4-4--0x0x0x0-4x4x4x4-----------------------------------------|

Middle 8:-

    "Fine, fine, fine"
e|--------------0------------0------------0----------------------------------|
B|--------------3------------3------------3----------------------------------|
G|--------------2------------2------------2----------------------------------|
D|---444-55-000-0-444-55-000-0-444-55-000-0----------------------------------|
A|---444-55-000-0-444-55-000-0-444-55-000-0----------------------------------|
D|---444-55-000-0-444-55-000-0-444-55-000-0----------------------------------|

    "I am fine"
e|-----------------------------0------0------0-----0-------------------------|
B|-----2-----2-----2-----2-----0------0------0-----0-------------------------|
G|------2-----2-----2-----2------3------3------3-----3-----------------------|
D|--00----00----00----00----44-----44-----44-----44--------------------------|
A|--00----00----00----00----44-----44-----44-----44--------------------------|
D|--00----00----00----00----44-----44-----44-----44--------------------------|

e|-------------------------------02-----02------02----02---------------------|
B|-----23-----23-----23-----23---02-----02------02----02---------------------|
G|-----22-----22-----22-----22-----------------------------------------------|
D|--00-----00----00-----00-----44-----44-----44----44------------------------|
A|--00-----00----00-----00-----44-----44-----44----44------------------------|
D|--00-----00----00-----00-----44-----44-----44----44------------------------|


| /  slide up
| \  slide down
| h  hammer-on
| p  pull-off
| ~  vibrato
| +  harmonic
| x  Mute note
Tap to rate this tab
# A B C D E F G H I J K L M N O P Q R S T U V W X Y Z