Song name
# A B C D E F G H I J K L M N O P Q R S T U V W X Y Z

Reuben - Agony Agatha tab

Help us improve GuitareTab! Take a short survey!
Artist:Reuben
Song:Agony/Agatha
Album:In Nothing We Trust
Guitarist:Jamie Lenman
Tabbed by:Duncan S/reelbigfish432

Tuning standard and them half a step down
(high to low):
Eb
Bb
Gb
Db
Ab
Eb

note:unlike most reuben songs the 6th (low e) string is NOT dropped

For this tab I have transcribed the guitar and the piano.

Tab Legend:
\=slide down
/=slide up
< >=natural harmonics

Intro:
note: ( )=only play first time round
Eb|----------------------------------------|
Bb|----------------------------------------|
Gb|----------------------------------------|
Db|------------------------------------1-2-|x3
Ab|------------------------2-3--3-4-5------|
Eb|-(\-\-\-\-0)-0-3-4-5--5-----------------|

Verse 1:
note:this is not on the record but jamie does it live like this
Eb|---------|
Bb|---------|
Gb|-1-2-2-2-|
Db|---------|
Ab|---------|
Eb|---------|

Then the chorus riff is the same as the intro riff

Post Chorus 1:
note:again i dont know if this is on guitar but might as well play it
Eb|---------|
Bb|---------|
Gb|---------|
Db|----5----|
Ab|-2--3--5-|
Eb|-0-----3-|

Then a verse (no guitar)

Then a chorus then;

Post-Chorus 2:
Eb|-----0----0--------0-0-0-0-0-0-0-0-|
Bb|-----0----0--------0-0-0-0-0-0-0-0-|
Gb|-----1----4-4-4-4--4-4-4-4-6-6-6-6-|
Db|-2-2-2-2--5-5-5-5--5-5-5-5-7-7-7-7-|x4
Ab|-2-2-2-2--3-3-3-3--5-5-5-5-7-7-7-7-|
Eb|-0-0-0-0-----------3-3-3-3-5-5 5-5-|

Outro:
Eb|-------------------------------------------------|
Bb|-------------------------------------------------|
Gb|-------------------------------------------------|
Db|-7---7-8---8-7---7-8----7---7-8---8-7---7-8------|
Ab|-7---7-8---8-7---7-8----7---7-8---8-7---7-8-5555-|
Eb|-5-0-5-6-0-6-5-0-5-6----5-0-5-6-0-6-5-0-5-6-3333-|

Eb|----------------------------------------------|
Bb|------------------<12>------------------------|
Gb|------------------<12>------------------------|
Db|-7---7-8---8-7---7--------7---7-8---8-7---7-8-|
Ab|-7---7-8---8-7---7--------7---7-8---8-7---7-8-|
Eb|-5-0-5-6-0-6-5-0-5--------5-0-5-6-0-6-5-0-5-6-|

OK, these next bits are piano arranged for guitar because otherwise its not a very 
heavy song

Intro:
note: this is actually played over the guitar part but you can play this if you want

Eb|-12-|
Bb|----|
Gb|----|
Db|----|x48
Ab|----|
Eb|----|

1st Verse:
note:this part comes in about halfway through the verse
Eb|-0-------0-------|
Bb|-0-3-3-3-0-3-3-3-|
Gb|-1-2-2-2---2-2-2-|
Db|-----------------|x4
Ab|-----------------|
Eb|-----------------|

Pre-Chorus 1:
Eb|--------------------|
Bb|--------------------|
Gb|--------------------|
Db|--------------------|x2
Ab|--------------------|
Eb|-5-5-5-5-5-5-5-5--8-|

Chorus:
Eb|-12-|
Bb|-12-|
Gb|----|
Db|----|x48
Ab|----|
Eb|----|

Post Chorus 1:
Eb|-------------|
Bb|-----------0-|
Gb|-------------|
Db|-------------|
Ab|------3------|
Eb|-0-----------|

2nd Verse:
note:this part is starts the very beginning of the verse with the bass and goes the 
way through the verse
Eb|-------|
Bb|-------|
Gb|-------|
Db|-------|
Ab|-------|
Eb|-0-0-3-|

at about halfway through the verse this part comes in
Eb|---------|
Bb|-3-3-----|
Gb|-----3-4-|
Db|---------|x8
Ab|---------|
Eb|---------|

Eb|-0-0-----|
Bb|-3-3-----|
Gb|-----3-4-|
Db|---------|x8
Ab|---------|
Eb|---------|

Pre-Chorus 2:
Eb|----------------------------------------------------|
Bb|----------------------------------------------------|
Gb|----------------------------------------------------|
Db|-------------------------------------------------4--|
Ab|----------------------------------------------------|
Eb|-5-5-5-5-5-5-5-5-5-5-5-5-5-4-3-2--2-2-2-2-2-2-2--3--|

Eb|-----------------------------------------------------------|
Bb|-----------------------------------------------------------|
Gb|-----------------------------------------------------------|
Db|-------------------------------------------------------1-2-|
Ab|----------------------------2-3--3-3-3-3-3-4-5-5-5-5-------|
Eb|-5--5-5-5-5-5-5-5-5-5-5-5-5--------------------------------|

then another chorus.

And that's it!

Arrangement (Guitar):
Intro
1st Verse
Chorus
Post-Chorus 1
Chorus
Post Chrous 2
Outro

Arrangement (Piano):
Intro
1st Verse
Pre-Chorus 1
Chorus
Post-Chorus
2nd Verse
Pre-Chorus 2
Chorus

Enjoy!
Related for Agony Agatha tab