Song name
# A B C D E F G H I J K L M N O P Q R S T U V W X Y Z

Reuben - Nobody Loves You tab

-------------------------------------------------------------------------------
			     NOBODY LOVES YOU - Reuben
-------------------------------------------------------------------------------
Tabbed by:colourofanger
Email:whatgoesup_@hotmail.com

Tuning: Standard

I already tabbed this but made one small mistake at the end.
So here it is again.

Verse

e|----------------|
B|-3-1-3/5-0------|
G|-2-2-2/4-4--4H5-|
D|-0-0-3/5-5--5H5-|
A|-3-3------------|
E|----------------| x2

e|------------------|
B|-3-1-3/5-0--------|
G|-2-2-2/4-4--4H5P4-|
D|-0-0-3/5-5--5H5P5-|
A|-3-3--------------|
E|------------------| x1

e|----------------|
B|-3-1-3/5-0------|
G|-2-2-2/4-4--4H5-|
D|-0-0-3/5-5--5H5-|
A|-3-3------------|
E|----------------| x1


Chorus

e|-------------------------------------------------------|
B|-3-3-33-1-1-11-1-1-11-3-3-33--3-3-33/5-5-1-1-11-3-3-33-|
G|-2-2-22-2-2-22-0-0-00-2-2-22--2-2-22/4-4-0-0-00-2-2-22-|
D|-3-3-33-3-3-33-2-2-22-0-0-00--3-3-33/5-5-2-2-22-3-3-33-|
A|---------------3-3-33-3-3-33-------------3-3-33--------|
E|-------------------------------------------------------|


Bridge

e|------------------------------------------------------|
B|---3------3------5------5------0-----0------6-----6---|
G|-----2------2------4------4------2-----2------4-----4-|
D|-3------3------5------5------3-----3------5-----5-----|
A|------------------------------------------------------|
E|------------------------------------------------------|

e|----------------------------------------------------------|
B|---3------3------5------5------0-----0------6-----5---3---|
G|-----2------2------4------4------2-----2------4-----4---4-|
D|-3------3------5------5------3-----3------5-----5---------|
A|----------------------------------------------------------|
E|----------------------------------------------------------| 


Ending 

e|----------------------|
B|---1---1-----1----1-1-|
G|-----0---------0--0-0-|
D|-3-------3-3------3-3-|
A|----------------------|
E|----------------------| repeat to fade


| /  slide up
| \  slide down
| h  hammer-on
| p  pull-off
| ~  vibrato
| +  harmonic
| x  Mute note
===============================================================================
Tap to rate this tab
# A B C D E F G H I J K L M N O P Q R S T U V W X Y Z