Song name
# A B C D E F G H I J K L M N O P Q R S T U V W X Y Z

Reuben - Dusk tab

-------------------------------------------------------------------------------
			     DUSK - Reuben
-------------------------------------------------------------------------------
Tabbed by: colourofanger
Email: whatgoesup_@hotmail.com

Tuning: standard

First verse

e|-----0-0----------2-2----------0-0------------000-|
B|-----0-0----------2-2----------0-0----------0-000-|
G|---0-0-0-0------4-4-4-4------2-2-2-2-222-22-2-222-|
D|-2-2-2-2-2-22-4-4-4-4-4-44-2-2-2-2-2-222-22-2-222-|
A|-2-2-----2-22-2-2-----2-22-0-0-----0-000-00-0-000-|
E|-0-0-----0-00-2-2-----2-22-0-0-----0----------000-|

"An eventful year, that it was..."

e|-----0-0----------2-2------1-1-0-1-0---|
B|-----0-0----------2-2------0-0-0-1-1---|
G|---0-0-0-0------4-4-4-4----0-0-2-2-2-2-|
D|-2-2-2-2-2-22-4-4-4-4-4-44-2-2-2-2-2-2-|
A|-2-2-----2-22-2-2-----2-22-------------|
E|-0-0-----0-00-2-2-----2-22-------------|

"And if I'm still here, it's because..."

Chorus
Strum these chords fast

e|-3--1--3--1-|
B|-3--1--3--1-|
G|-3--3--3--3-|
D|-5--3--5--3-|
A|-5--1--5--1-|
E|-3--1--3--1-|

"The stars have gone out, from behind your eyes
This pain is real, this wound is life size
And I can't believe it, you need to pull through
And I hope you make it, I'm waiting for you."

After the chorus, play this.
Notes in brackets are palm muted.

e|------333------333------33------111------111------11------555------555------55------555------555------55-|
B|------333------333------33------111------111------11------555------555------55------555------555------55-|
G|------333------333------33------333------333------33------777------777------77------555------555------55-|
D|-(55)-555-(55)-555-(55)-55-(33)-333-(33)-333-(33)-33-(77)-777-(77)-777-(77)-77-(77)-777-(77)-777-(77)-77-|
A|-(55)-555-(55)-555-(55)-55-(11)-111-(11)-111-(11)-11-(55)-555-(55)-555-(55)-55-(55)-555-(55)-555-(55)-55-|
E|-(33)-333-(33)-333-(33)-33-(11)-111-(11)-111-(11)-11-(55)-555-(55)-555-(55)-55-(55)-555-(55)-555-(55)-55-|

Second Verse

e|-0-----0-----0-----------0-----0-----0----------2-----2-----2-----------2-----2-----2---------|
B|---0-----0-----0---0-------0-----0-----0---0------0-----0-----0---0-------0-----0-----0---0---|
G|-----0-----0-----0-----------0-----0-----0----------0-----0-----0-----------0-----0-----0-----|
D|---------------------2-2--------------------2-2---------------------2-2---------------------2-|
A|----------------------------------------------------------------------------------------------|

x2

"So you are beginning to choke
Well, how can you not see joke?"

Second Chorus

e|------333------333------33------111------111------11------555------555------55------555------555------55-|
B|------333------333------33------111------111------11------555------555------55------555------555------55-|
G|------333------333------33------333------333------33------777------777------77------555------555------55-|
D|-(55)-555-(55)-555-(55)-55-(33)-333-(33)-333-(33)-33-(77)-777-(77)-777-(77)-77-(77)-777-(77)-777-(77)-77-|
A|-(55)-555-(55)-555-(55)-55-(11)-111-(11)-111-(11)-11-(55)-555-(55)-555-(55)-55-(55)-555-(55)-555-(55)-55-|

x2

"The sound of your voice still rings in my ears
It's tired and angry and quiet all these years
This situation, it tears us apart
And we joke about it, we make jokes of ourselves."

Ending

e|----333----333----33----111----111----11-11-11-0-000-11-00-00-|
B|----333----333----33----111----111----11-00-00-0-000-11-11-00-|
G|----333----333----33----333----333----33-00-00-0-000-22-22-22-|
D|-55-555-55-555-55-55-33-333-33-333-33-33-22-22-2-222-22-22-22-|
A|-55-555-55-555-55-55-11-111-11-111-11-11-00-00-0-000-00-00-00-|
E|-33-333-33-333-33-33-11-111-11-111-11-11----------------------| x2

e|----333----333----33----111----111----11-1--0--11111-1--0-11111-|
B|----333----333----33----111----111----11-0--0--11111-0--0-11111-|
G|----333----333----33----333----333----33-0--0--22222-0--0-22222-|
D|-55-555-55-555-55-55-33-333-33-333-33-33-2--2--22222-2--2-22222-|
A|-55-555-55-555-55-55-11-111-11-111-11-11-0--0--00000-0--0-00000-|
E|-33-333-33-333-33-33-11-111-11-111-11-11------------------------|

e|----333----333----33----111----111----11-1--0---0------0-------|
B|----333----333----33----111----111----11-0----------1------1---|
G|----333----333----33----333----333----33-0----4---4------4-----|
D|-55-555-55-555-55-55-33-333-33-333-33-33-2-------------------0-|
A|-55-555-55-555-55-55-11-111-11-111-11-11-0---------------------|
E|-33-333-33-333-33-33-11-111-11-111-11-11-----------------------|

"But... but we know."

Piano part

e|---0---------0---------2---------2---------0---------0---------2---------2-------|
B|-------1---------1---------1---------1---------1---------1---------1---------1-3-|
G|-----4---4-----4---4-----4---4-----4---4-----4---4-----4---4-----4---4-----4-----|
D|---------------------------------------------------------------------------------|
A|-0---------0---------0---------0---------0---------0---------0---------0---------|
E|---------------------------------------------------------------------------------| x2

"One day this will all stop and I won't have to run or rush or push or try
And I'll give back everything I took and kiss everyone I love
And I'll fall asleep and I won't wake up for weeks and weeks."


| /  slide up
| \  slide down
| h  hammer-on
| p  pull-off
| ~  vibrato
| +  harmonic
| x  Mute note
===============================================================================
Tap to rate this tab
# A B C D E F G H I J K L M N O P Q R S T U V W X Y Z