Song name
# A B C D E F G H I J K L M N O P Q R S T U V W X Y Z

Reuben - Crimson tab

Reuben - Crimson
Album - Pilot EP

Tune the E String down to Eb

Intro/Chorus

e /-------------------------------          e /-------------------------|
b /-------------------------------          b /-------------------------|
g /-----------1111----------------   X3     g /-------------------------|
d /---66666---2222----6666----6666          d /---66666----6666----2222-|
a /---44444---0000----3333----4444          a /---44444----4444----2222-|
eb/---00000-----------4444----5555          eb/---00000----5555----3333-|


Verse

e /----6~~~~~----------------------|
b /----6~~~~~----------------------|
g /----6~~~~~----------------------|
d /--------------------------------|
a /--------------------------------|
eb/----5~~~~~2222222221-1-1-2/4-4--|

Bridge

e /---------------------------------------------|
b /---------------------------------------------|
g /----6-6-6-4----6-6-6-4----6-6-6-4----6-6-6-4-|
d /---------------------------------------------|
a /----4-4-4-2----4-4-4-2----4-4-4-2----4-4-4-2-|
eb/---------------------------------------------|

Bridge 2

e /----------------------------------|
b /----------------------------------|
g /----------------------------------|
d /----------------------------------|
a /----------------------------------|
eb/----00000---11111---33333---44444-|


e /--------------------------------------|
b /--------------------------------------|
g /--------------------------------------|
d /--------------------------------------|
a /--------------------------------------|
eb/------0-0-0-0-0-0-0-7-9-9-9-9-9-9-9-7-|
Tap to rate this tab
# A B C D E F G H I J K L M N O P Q R S T U V W X Y Z