Guitaretab - guitar tabs
Song name
# A B C D E F G H I J K L M N O P Q R S T U V W X Y Z
Home / R / Reuben / Once tab

Reuben - Once tab

ARTIST/BAND: Reuben
SONG: Once
RELEASED ON: Freddy Kreuger Single 
GUITARIST: Jamie Lenman
TABBED BY: Aiden

TUNING: Drop D (D A D G B E)


INTRO/VERSE:
E]------------------------------------------|
B]------------------------------------------| 
G]--------10----10----10----------7------7--|
D]---------8-----8-----8-------5------------|
A]--1010----------10-------6---------6-----|
D]------------------------------------------|
 
E]---------------------------------------|
B]---------------------------------------|
G]--------10-------10----------7------7--|
D]---------7--------7-------5------------|
A]--10-10-------10-------6---------6-----|
D]---------------------------------------|

[ Tab from: http://www.guitaretab.com/r/reuben/159111.html ]
CHORUS:
E]-------------------------------------------------------------------|
B]-------------------------------------------------------------------|
G]--7-7-7-7-7-7-7-7--------------------------------------------------|
D]--7-7-7-7-7-7-7-7--8-8-8-8-8-8-8-8--7-7--0-7-7-0-0-7-7--0-7-7-0-0--|
A]--5-5-5-5-5-5-5-5--8-8-8-8-8-8-8-8--7-7--0-7-7-0-0-7-7--0-7-7-0-0--|
D]-------------------8-8-8-8-8-8-8-8--7-7--0-7-7-0-0-7-7--0-7-7-0-0--|
 

OUTRO:
E]---------------------------------------------------------------|
B]---------------------------------------------------------------|
G]--8-8-8-8-------------------------8-8-8-8----------------------|
D]--8-8-8-8-5-5-5---0-0-0-0-8-8-8---8-8-8-8-5-5-5---0-0-0-5-4-4--|
A]--6-6-6-6-5-5-5---0-0-0-0-8-8-8---6-6-6-6-5-5-5---0-0-0-5-4-4--|
E]----------5-5-5---0-0-0-0-8-8-8-----------5-5-5---0-0-0-5-4-4--|
Related for Once tab