Song name
# A B C D E F G H I J K L M N O P Q R S T U V W X Y Z

Reuben - Dusk tab

-------------------------------------------------------------------------------
			     SONG NAME - Band Name
-------------------------------------------------------------------------------
Tabbed by: Tom / kaizokuninja
Email: tom0weaver@gmail.com

Tuning: Half step down, Drop top string: C# G# C# F# A# D# (Same for majority of Reuben Songs)

After reading a tab of this song in regular tuning i thought i would tab it myself as i havent't
done tabbing for years. This song sounds pretty much correct to my ears but if you feel there is
anything wrong then email me. Cheers.

Listen to the song for correct strumming and such.


"An eventful year, that it was....." - 

D#|---------0-----------0-----------0----------0-----|  
A#|---------5-----------5-----------5----------3-----| 
F#|---------5-----------5-----------5----------2-----| (*2)
C#|---------2-----------0-----------4----------4-----|
G#|-0-0--------0-------------------------------------|
C#|---------------5--5-----5--0--0------0--0---------|

"The stars have gone out, from behind your eyes..." - Strummed

D#|-----0-----------0-----------0----------0-------|  
A#|-----5-----------5-----------5----------3-------| 
F#|-----5-----------5-----------5----------2-------| (*2)
C#|-----2-----------0-----------4----------4-------|
G#|-----0-----------X-----------X----------X-------|
C#|-----------------5-----------0----------0-------|

Play after "I hope you make it, i'm waiting for you..." - Palm Muted

D#|-----------------------------------------------------------------|
A#|-----------------------------------------------------------------|
F#|--------------------------------------------------555---555--55--|
C#|----555---555--55---55---55--55---444---444--44---444---444--44--|
G#|----000---000--00---00---00--00---000---000--00---000---000--00--|
C#|-777---777---77--555--555--55--000---000---00--000---000---00----|

"So you are beginning to choke..."

D#|-----7--7--7--7--------------------8---8---8---8-------------|
A#|------8--8--8--8--------------------8---8---8---8------------|
F#|--999--9--9--9--9----------11-11-11--11--11--11--11----------|
C#|--------------------(*2)------------------------------(*2)---|
G#|-------------------------------------------------------------|
C#|-------------------------------------------------------------|

"The sound of your voice, still rings in my ears...." - Palm Muted

D#|-----------------------------------------------------------------|
A#|-----------------------------------------------------------------| 
F#|--------------------------------------------------555---555--55--|
C#|----555---555--55---55---55--55---444---444--44---444---444--44--| (*2)
G#|----000---000--00---00---00--00---000---000--00---000---000--00--|
C#|-777---777---77--555--555--55--000---000---00--000---000---00----|

"But we know..."

D#|-----0-----------0-----------0----------0-------|  
A#|-----5-----------5-----------5----------3-------| 
F#|-----5-----------5-----------5----------2-------| (*3)
C#|-----2-----------0-----------4----------4-------|
G#|-----0-----------X-----------X----------X-------|
C#|-----------------5-----------0----------0-------|

The last repetition is a little different, You finish on the first example of the C# chord
and then reverse pick the final single notes..

D#|-----0-----------0-----------0----|---0------|  
A#|-----5-----------5-----------5----|----0-----| 
F#|-----5-----------5-----------5----|-----5----| 
C#|-----2-----------0-----------4----|------4---|
G#|-----0-----------X-----------X----|----------|
C#|-----------------5-----------0----|----------|



Well, there you have it. It sounds spot on and complete to me. 
Please send me any feedback as this is the first tab i have done in years!!
Tap to rate this tab
 
# A B C D E F G H I J K L M N O P Q R S T U V W X Y Z