Reuben - Crimson tab

Reuben
Crimson


The key is drop D flat (or drop C sharp depending on your outlook), but I've transposed 
her for drop D to make it a little simpler to follow. If you tune to drop D, then take 
every string down half a step, you should have it.

Intro/Chorus

e /-------------------------------          -------------------------|
b /---33333-----------------------          ---33333-----------------|
g /---22222---3333----------------   X3     ---22222-----------------|
d /---00000---3333----7777----7777          ---00000----5555----3333-|
a /---00000---1111----4444----5555          ---00000----5555----3333-|
d /---00000-----------4444----5555          ---00000----5555----3333-|


Verse

e /----7~~~~~----------------------|
b /----7~~~~~----------------------|
g /----7~~~~~----------------------|
d /--------------------------------| x 2
a /--------------------------------|
d /----5~~~~~2222222221-1-1-2/4-4--|

Bridge 1

e /---------------------------------------------|
b /---------------------------------------------|
g /----7-7-7-5----7-7-7-5----7-7-7-5----7-7-7-5-|
d /---------------------------------------------| x 2
a /----5-5-5-3----5-5-5-3----5-5-5-3----5-5-5-3-|
d /---------------------------------------------|

Bridge 2

e /----------------------------------|
b /----------------------------------|
g /----------------------------------|
d /----------------------------------|  x 2
a /----------------------------------|
d /----00000---11111---33333---44444-|

Repeat the chorus/intro. Then that prelude to the 2nd verse is those first in the verse. 
The second half of the verse 2 - ("I see the faces turn in my direction and I feel so 
un...." is as follows...

e /----------------------------------     ---------------------------|
b /----------------------------------     ---------------------------|
g /----------------------------------     ---------------------------|
d /-5555555555555544444444444444----- x 3 ---------------------------|
a /-5555555555555555555555555555-----     ---------------------------|
d /-5555555555555555555555555555-----     -2222222221-1-1-2/4-4------|

Then repeat the bridge and the second bridge, then you softly strum the chorus for "You 
don't have to tell me, I know already..."

Then the base comes in. You follow with this

e /--------------------------------------|
b /--------------------------------------|
g /--------------------------------------|
d /--------------------------------------| x 8
a /------9-9-9-9-9-9-9-9-9-9-9-9-9-9-9-9-|
d /------0-0-0-0-0-0-0-7-9-9-9-9-9-9-9-7-|

Then the chorus. The final segment - "Say fall and I'll fall..." is the last chord in 
the chorus sequence just reall being hammered.

e /---|
b /---|
g /---|
d /-3-|
a /-3-|
d /-3-|
Tap to rate this tab
 
# A B C D E F G H I J K L M N O P Q R S T U V W X Y Z