Song name
# A B C D E F G H I J K L M N O P Q R S T U V W X Y Z

Reuben - Nobody Loves You tab

Reuben - Nobody Loves You

Tabbed by LavellionTom

I could only find one version of this song online which is more suited for playing on 
acoustic and singing along.

I had to sit down and do this tab as I feel it's an amazing piece of guitar playing 
which needs to be shared.

The tunings for each song are found on the insert of the album sleve so I went from that 
but found it was far easier dropping the bottom string to
C#. I know this isn't the same as how Jamie plays it on the record but I found most of 
it easier, aside from the Mid 8 section which, what I've done is close but not how it is 
on the record.

If you want to play it like it is exactly to the record with the tuning D#G#C#F#A#D# 
just shift everything from the tab on the bottom string down 2 frets.

The timing isn't exact so it's best to listen to the track and play along.
This is as close as i could get.

Hope you find it useful!


INTRO/VERSE

D#--------------------|
A#--------------------|
F#--------------------|
C#---5--5---10-10p9---|
G#---3--3---10-10-----|
C#---2--3---10-10-----|  x4

"oooh I'm all alone...."


CHORUS

D#----------------------|
A#----------------------|
F#---9-9--16------------|
C#---7-7--14---10p9-----|
G#---7-7--14---10-10----|
C#---7-7--14---10-10----| x2

"so here it is, from me to you..."


VERSE

D#--------------------|
A#--------------------|
F#--------------------|
C#---5--5---10-10p9---|
G#---3--3---10-10-----|
C#---2--3---10-10-----|  x4

"and ooooh you are talented..."


CHORUS

D#----------------------|
A#----------------------|
F#---9-9--16------------|
C#---7-7--14---10p9-----|
G#---7-7--14---10-10----|
C#---7-7--14---10-10----| x4


"so quiet now, between us two....."


MID 8 SECTION

D#--7---------------------|
A#--6---5---0-6-5-3-------|
F#--7---5---4-4-4-4-------|
C#--7---5---5-0-0-0-------|
G#--5---3---5-5-5-5-------|
C#----------5-5-5-5-------|

"so don't give up, it's not the way......"

The timing on this need to be listened to. The chords play more than how many I have put 
and they are picked and strummed.

VERSE

D#--------------------    --------------|
A#--------------------    --------------|
F#--------------------    --------------|
C#---5--5---10-10p9---    ---5--5---10--|
G#---3--3---10-10-----    ---3--3---10--|
C#---2--3---10-10-----    ---2--3---10--|

"and ooooh, lost it out....and ooooh but you gave it all you had.."

D#-------------------------------|
A#-------------------------------|
F#-------------------------------|
C#---5--5---10---9--10-12-10-9---|
G#---3--3---10---10-10-10-10-10--|
C#---2--3---10---10-10-10-10-10--|

"and ooooh, and in the end......"

D#--------------------|
A#--------------------|
F#--------------------|
C#---5--5---10-10p9---|
G#---3--3---10-10-----|
C#---2--3---10-10-----|

"and ooooh, that is the best we can ever hope for..."


CHORUS

D#----------------------|
A#----------------------|
F#---9-9--16------------|
C#---7-7--14---10p9-----|
G#---7-7--14---10-10----|
C#---7-7--14---10-10----| x4


"so here it is, so dont be blue....."

Before the outro section it holds the last chord of the chorus without the pull off onto 
the 9th fret.


OUTRO

D#----------------------------------------|
A#----0-------0-------0-------------6-6---|
F#-------5-------5---------5---5----5-5---|
C#----------------------------------3-3---|
G#--3-------3-------3--------3------------|
C#----------------------------------------|


The outro section fades out and gives way to a string section. So all the guitar parts 
are over.
Tap to rate this tab
# A B C D E F G H I J K L M N O P Q R S T U V W X Y Z