Song name
# A B C D E F G H I J K L M N O P Q R S T U V W X Y Z

Reuben - Nobody Loves You tab

-------------------------------------------------------------------------------
                             NOBODY LOVES YOU - Reuben
-------------------------------------------------------------------------------

| \  Slide down
| h  Hammer-on
| x  Muted

Intro. / Verse
eb|--------------------------------|    |----------------------------------|
Bb|--------------------------------|    |----------------------------------|
Gb|-------------------7-----7-5-xx-|    |-------------------7-----5-7-5-xx-|
Db|-5-------5------xx-5-----5-5-xx-| x2 |-5-------5------xx-5-----5-5-5-xx-|  (First
Ab|-3---3-3-3---33-xx-3-----3-3-xx-|    |-3---3-3-3---33-xx-3-----3-3-3-xx-|   bar once
Eb|-0---0-0-1---11-xx--------------|    |-0---0-0-1---11-xx----------------|   again)

Chorus
|------------------------------------------------|
|------------------------------------------------|
|------------------------------------4---4-4--44-|
|-7---77--7-h9---9-9-9-9-\-5--5--55--5---5-5--55-|  x2
|-7---77--7-7----7-7-7-7-\-3--3--33--3---3-3--33-|
|-5---55--5-5----5-5-5-5-------------------------|

Verse 2 - Same as Verse 1 w/ Minor Variations - x1

Chorus - x2 (4x full riff)

Bridge - Built around Dm, C, E, and F Shapes
|-----1-----1----|    |--------------------0-----0----| |----------------|    
|-----3-----3----|    |-----1-----1--------1-----1----| |-----0-----0----|    
|-2----2---2-2---|    |-----0-----0---------0---0-0---| |-----4-----4----|    
|-0--------------| x2 |-2----2---2-2---2--------------| |-5----5---5-5---| x2 
|----------------|    |-3--------------3--------------| |-5--------------|    
|----------------|    |-------------------------------| |----------------|    

|----------------|-------------------|
|-----6-----6----|-----5--------3----|
|-----4-----4----|-----4--------4----|
|-5----5---5-5---|-5----5---5----5---| x2 (All)
|-5--------------|-5--------5--------|
|----------------|-------------------|

Verse 3 - Same as Verse 1 w/ Minor Variations - x1

Chorus - x2 (4x full riff)

Outro.
|----------------------------|
|---0-----0-----0--------6-6-|
|-----5-----5-----5---5--5-5-|
|------------------------3-3-| x6 (Until End)
|-3-----3-----3-----3--------|
|----------------------------|

Oh, you're all alone
Oh, I know it can feel like that
Oh, and no one knows 
Oh, just how much you have to offer

So, here it is
From me to you
Nobody loves you like I do
I'll say it twice because it's true
Nobody loves you like I do

And oh, you're talented 
And oh, but you're impatient as well
And oh, so quiet down 
'cause oh, because no one listens when you're angry

So quiet now between us two
Nobody loves you like I do
A feeling that is just for you
Nobody loves you like I do, like I do, like I do
Nobody loves you like I do, like I do, like I do
Nobody loves you like I do

So don't give up
It's not the way
I know the things your dad will say
'You're not getting any younger, you're not learning anything'
But we never learn unless we're wrong
And I've been waiting all along to congratulate your efforts
You really showed them who you are

And oh, you lost it out 
And oh, but you gave it all you had
And oh, and in the end 
And oh, that is the best we can ever hope for

So here it is 
So don't be blue
Nobody loves you like I do
Something that is just for you
Nobody loves you like I do, like I do, like I do
Nobody loves you like I do, like I do, like I do
Nobody loves you.
Tap to rate this tab
# A B C D E F G H I J K L M N O P Q R S T U V W X Y Z