Song name
# A B C D E F G H I J K L M N O P Q R S T U V W X Y Z

Reuben - Shambles tab

-----------------------------------------------------------------------------
                   Shambles (Long Version) - Reuben
-----------------------------------------------------------------------------
Tabbed by: RYAN
E-mail: RHARTRIDGE@GMAIL.COM

Tuning: Drop C#

IN LIGHT OF MUSCLE MEMORY AND FOR MY BEST BUDDY, ANDREW.

INTRO
D#|--------------------------------------------------------|
A#|--------------------------------------------------------|
F#|--------------------------------------------------------|
C#|-15-15-14-12-12-12-12-12-12-12-12-12-12-12-12-----------|
G#|-15-15-14-12-12-12-12-12-12-12-12-12-12-12-12-----------|
C#|-15-15-14-12-12-12-12-12-12-12-12-12-12-12-12-----------|

PIANO
D#|--------------------------------------------------------|
A#|--------------------------------------------------------|
F#|--------------------------------------------------------|
C#|-------7--------7--------4------------------------------|
G#|----8--------8--------5---------------------------------|
C#|-8--------5--------0------------------------------------|

2ND GUITAR FADE IN
D#|--------------------------------------------------------|
A#|--------------------------------------------------------|
F#|-14-14-14-14-14-14-14-14-14-14--------------------------|
C#|-X--X--X--X--X--X--X--X--X--X---------------------------|
G#|-12-12-12-12-12-12-12-12-12-12--------------------------|
C#|--------------------------------------------------------|

VERSE RIFF
D#|-----------------------------------------------------|
A#|-----------------------------------------------------|
F#|-----12--12---------12-11-12-14----------------------|
C#|-12--------12----12----------------------------------|
G#|--------------9--------------------------------------|
C#|-----------------------------------------------------|

"GOOD..."
D#|--------------------------------------------------------|
A#|--------------------------------------------------------|
F#|-11-11-11-11-11-11-11-11-11-11-11-11-11-11-11-10-10-10--|
C#|-X--X--X--X--X--X--X--X--X--X--X--X--X--X--X--X--X--X---|
G#|-9--9--9--9--9--9--9--9--9--9--9--9--9--9--9--8--8--8---|
C#|--------------------------------------------------------|

D#|--------------------------------------------------------|
A#|--------------------------------------------------------|
F#|-10-10-10-10-10-10-10-10-10-9-9-9-9-9-9-9-9-9-9-9-9-12--|
C#|-X--X--X--X--X--X--X--X--X--X-X-X-X-X-X-X-X-X-X-X-X-X---|
G#|-8--8--8--8--8--8--8--8--8--7-7-7-7-7-7-7-7-7-7-7-7-10--|
C#|--------------------------------------------------------|

D#|--------------------------------------------------------|
A#|--------------------------------------------------------|
F#|-12-12-12-12-12-12-12-12-12-12-12-14-14-14-14-14-14-14--|
C#|-X--X--X--X--X--X--X--X--X--X--X--X--X--X--X--X--X--X---|
G#|-10-10-10-10-10-10-10-10-10-10-10-12-12-12-12-12-12-12--|
C#|--------------------------------------------------------|

D#|--------------------------------------------------------|
A#|--------------------------------------------------------|
F#|-14-14-14-14-15-15-15-15-15-15-15-15-14-14-14-14-14-14--|
C#|-X--X--X--X--X--X--X--X--X--X--X--X--X--X--X--X--X--X---|
G#|-12-12-12-12-13-13-13-13-13-13-13-13-13-13-13-13-13-13--|
C#|--------------------------------------------------------|

D#|--------------------------------------------------------|
A#|--------------------------------------------------------|
F#|-14-14-14-14-14-14-14-14-14-14-14-14-15-15-15-14-14-14--|
C#|-X--X--X--X--X--X--X--X--X--X--X--X--X--X--X--X--X--X---|
G#|-12-12-12-12-12-12-12-12-12-12-12-12-13-13-13-12-12-12--|
C#|--------------------------------------------------------|

D#|------------------------------------|
A#|------------------------------------|
F#|-12-12-12-15-15-15-15-15-15---------|
C#|-X--X--X--X--X--X--X--X--X----------|
G#|-10-10-10-13-13-13-13-13-13---------|
C#|------------------------------------|

2ND VERSE
D#|------------------------------------------------------|
A#|------------------------------------------------------|
F#|------------------------------------------------------|
C#|-7-7-7-7-7-7-7-7-7-7-7-7-7-7-7-7-4-4-4-4-4-4-4-4------|X2
G#|-8-8-8-8-8-8-8-8-8-8-8-8-8-8-8-8-5-5-5-5-5-5-5-5------|
C#|-8-8-8-8-8-8-8-8-5-5-5-5-5-5-5-5-0-0-0-0-0-0-0-0------|
  pm...............................................

"I AM AN OLD, OLD MAN..."
D#|-------------------------------------------------------|
A#|-------------------------------------------------------|
F#|-5-5-5/7-7-7-7-7-7-7-7-7-7-7-7-7-7-7-7-7-7-7-7-7-7-7-7-|
C#|-X-X-X-X-X-X-X-X-X-X-X-X-X-X-X-X-X-X-X-X-X-X-X-X-X-X-X-|
G#|-3-3-3/5-5-5-5-5-5-5-5-5-5-5-5-5-5-5-5-5-5-5-5-5-5-5-5-|
C#|-------------------------------------------------------|

CHORUS
D#|--------------------------------------------------------|
A#|--------------------------------------------------------|
F#|--------------------------------------------------------|
C#|-0-0-0-0-0-0-0-0-0-0-0-0-0-0-0-0-7-7-7-7-7-7-7-7-7-7-7-7|
G#|-0-0-0-0-0-0-0-0-0-0-0-0-0-0-0-0-8-8-8-8-8-8-8-8-8-8-8-8|
C#|-0-0-0-0-0-0-0-0-0-0-0-0-0-0-0-0-8-8-8-8-8-8-8-8-8-8-8-8|

D#|--------------------------------------------------------|
A#|--------------------------------------------------------|
F#|--------------------------------------------------------|
C#|-7-7-7-7-7-7-7-7-7-7-7-7-7-7-7-7-7-7-7-7-7-7-7-7-7-7-7-7|
G#|-8-8-8-8-4-4-4-4-4-4-4-4-4-4-4-4-4-4-4-4-5-5-5-5-5-5-5-5|
C#|-8-8-8-8-4-4-4-4-4-4-4-4-4-4-4-4-4-4-4-4-5-5-5-5-5-5-5-5|

D#|------------------|
A#|------------------|
F#|------------------|
C#|-7-7-7-7----------|X4
G#|-5-5-5-5----------|
C#|-5-5-5-5----------|

"I AM GOOD..."
D#|--------------------------------------|
A#|--------------------------------------|
F#|--------------------------------------|
C#|-7-7-7-7-7-7-7-8-5-5-5-5-5-5-5-5------|X4
G#|-8-8-8-8-8-8-8-8-7-7-7-7-7-7-7-7------|
C#|-8-8-8-8-8-8-8-8-0-0-0-0-0-0-0-0------|

D#|--------------------------------------|
A#|--------------------------------------|
F#|--------------------------------------|
C#|-12/10-10-10/7-7-7/4-4-4-0-0-0--------|X13?
G#|-12/10-10-10/7-7-7/4-4-4-0-0-0--------|
C#|-12/10-10-10/7-7-7/4-4-4-0-0-0--------|

2ND GUITAR
D#|--------------------------------------------------------|
A#|--------------------------------------------------------|
F#|-17-17-17-17-17-17-17-17-17-17/11-11-11-11-11-----------|
C#|-X--X--X--X--X--X--X--X--X--X--X--X--X--X--X------------|
G#|-15-15-15-15-15-15-15-15-15-15/9--9--9--9--9------------|
C#|--------------------------------------------------------|

"I WON'T HEAR..."
D#|-------------------------------------|
A#|-------------------------------------|
F#|-------------------------------------|
C#|---------------------4---------------|
G#|---------------------4---------------|
C#|-0-1-3-3--0-1-3-3--0-4---------------|
                    pm.
"DON'T SAY IT..."
D#|--------------------------------------------------------|
A#|--------------------------------------------------------|
F#|--------------------------------------------------------|
C#|-0-0-0-0--0-0-0-0--0-0-0-0--0-0-0-0---------------------|
G#|-0-0-0-0--0-0-0-0--0-0-0-0--0-0-0-0---------------------|
C#|-0-0-0-0--0-0-0-0--0-0-0-0--0-0-0-0---------------------|

THEN FINAL CHORUS.


IT'S ALL THERE YOU JUST NEED TO WORK OUT THE TIMINGS.
Tap to rate this tab
 
# A B C D E F G H I J K L M N O P Q R S T U V W X Y Z