Song name
# A B C D E F G H I J K L M N O P Q R S T U V W X Y Z

Reuben - Freddy Kreuger tab

Song:Freddy Kreuger
Artist:Reuben
Album:Racecar Is Racecar Backwards
Guitarists:Jamie Lenman (6 string), Neil Lancaster (7 string)
Tabbed by:Duncan S/reelbigfish432

OK, cool song, tuned to drop Db/C#. I know there's a 7 string in the song but there's 
two parts in the song where there's another guitar, so it's easily played on one 6 string.

Tuning (High to low):
Eb/D#
Bb/A#
Gb/F#
Db/C#
Ab/G#
Db/C#

Tab Legend:
. under a note or chord - palm mute
x - string mute
< > around a note - slight pinch harmonic
/ - slide up
\ - slide down
~ - let ring

Intro:
Eb|-----------------------|-----------------------|
Bb|-------------------3-5-|---------------5---7---|
Gb|-4-4--0-4-4--0-4-5-----|-4-4--0-4-4--0---0---0-|
Db|-----------------------|-----------------------|
Ab|-----------------------|-----------------------|
Db|-----------------------|-----------------------|

Eb|-----------------------|---------------0---|
Bb|-------------------3-5-|---------------0-0-|
Gb|-4-4--0-4-4--0-4-5-----|-4-4--0-4-4--0-0-0-|
Db|-----------------------|-----------------0-|
Ab|-----------------------|-----------------0-|
Db|-----------------------|-------------------|

Then there's a verse where it alternates between;

Eb|---------|     |-0---|
Bb|-5---7---|     |-0-0-|
Gb|---0---0-|     |-0-0-|
Db|---------| and |---0-|do each one twice
Ab|---------|     |---0-|
Db|---------|     |-----|

then it goes into the chorus;

Chorus 1:
Eb|-------------------------------------|-------------------------0-|
Bb|-------------------------------------|-------------------------0-|
Gb|-7777777777777-444-5555555555555-----|-7777777777777-444-0--0--0-|
Db|-7777777777777-444-5555555555555-555-|-7777777777777-444-0--0--0-|
Ab|-5555555555555-422-3333333333333-555-|-5555555555555-222-0--0--0-|
Db|---------------------------------555-|-------------------0--0--0-|

Then it goes into this next part which is the part with two guitars, it's hard to space 
properly but i did my best, if you listen closely you'll be able to figure it out.

Pre-Verse:
Guitar 1
Eb|-----------------------|-----------------------|
Bb|-------------------3-5-|---------------5---7---|
Gb|-4-4--0-4-4--0-4-5-----|-4-4--0-4-4--0---0---0-|
Db|-----------------------|-----------------------|
Ab|-----------------------|-----------------------|
Db|-----------------------|-----------------------|
  |                       |                       |
Guitar 2                  |                       |
Eb|-5-5---------5-5-3-3-5-|-5-5--3-3-3--5-5-3-3-5-|
Bb|------7-7-7------------|-----------------------|
Gb|-----------------------|-----------------------|
Db|-----------------------|-----------------------|
Ab|-----------------------|-----------------------|
Db|-----------------------|-----------------------|

Guitar 1
Eb|-----------------------|-----------------------|
Bb|-------------------3-5-|-7~-----<5>~-----------|
Gb|-4-4--0-4-4--0-4-5-----|-----------------4~----|
Db|-----------------------|-----------------------|
Ab|-----------------------|-----------------------|
Db|-----------------------|-----------------------|
  |                       |                       |
Guitar 2                  |                       |
Eb|-5-5---------5-5-3-3-5-|-5-5--3-3-3--5-5-3-3-5-|
Bb|------7-7-7------------|-----------------------|
Gb|-----------------------|-----------------------|
Db|-----------------------|-----------------------|
Ab|-----------------------|-----------------------|
Db|-----------------------|-----------------------|

Verse 2:
Eb|-7---7---7---7---7---7---7---7---7---7------------|
Bb|---8---8---8---8---8---8---8---8---8---8--5---7---|
Gb|--------------------------------------------0---0-|
Db|--------------------------------------------------|
Ab|--------------------------------------------------|
Db|--------------------------------------------------|

Eb|-7---7---7---7---7---7---7---7---7---7----0-0-|
Bb|---8---8---8---8---8---8---8---8---8---8--0-0-|
Gb|------------------------------------------0-0-|
Db|--------------------------------------------0-|
Ab|--------------------------------------------0-|
Db|----------------------------------------------|

Eb|-------------------------------------------------------------|
Bb|-------------------------------------------------------------|
Gb|-------------------------------------------------------------|
Db|-----------------------------2-2-4-4-4-4-4-4-4-4-4-4-4-4-4-4-|
Ab|-5-5-5-5-5-5-5-5-5-5-5-5-5-5-0-0-2-2-2-2-2-2-2-2-2-2-2-2-2-2-|
Db|-5-5-5-5-5-5-5-5-5-5-5-5-5-5---------------------------------|
    . . . . . . . . . . . . . . . . . . . . . . . . . . . . . .

Eb|-------------------------------------------------------------0-0|
Bb|-------------------------------------------------------------0-0|
Gb|-------------------------------------------------------------0-0|
Db|-0-4-4-4-4-4-4-4-4-4-4-4-4-4-5-5-7-7-7-7-7-7-7-7-7-7-7-7-7-7-0-0|
Ab|-0-2-2-2-2-2-2-2-2-2-2-2-2-2-3-3-5-5-5-5-5-5-5-5-5-5-5-5-5-5-0-0|
Db|----------------------------------------------------------------|
    . . . . . . . . . . . . . . . . . . . . . . . . . . . . . .

Chorus 2:
Eb|--------------------------------------|
Bb|--------------------------------------|
Gb|-77777777777777-444-5555555555555-----|
Db|-77777777777777-444-5555555555555-555-|x4
Ab|-55555555555555-222-3333333333333-555-|
Db|----------------------------------555-|

Bridge:
Eb|-------------0-----------------|-------------0-------------------|
Bb|-------------0----------5~-----|-------------0-------------------|
Gb|-7~----------0-5~---------5~---|-7~-----------0-5~---------------|
Db|-7~-------00-0-5~-----------5~-|-7~--------00-0-5~---------------|
Ab|-5~-------00-0-3~--------------|-5~--------00-0-3~------xxxxxxxx-|
Db|-------------------------------|------------------------xxxxxxxx-|

Eb|--------------------------------------|
Bb|--------------------------------------|
Gb|-77777777777777-444-5555555555555-----|
Db|-77777777777777-444-5555555555555-555-|
Ab|-55555555555555-222-3333333333333-555-|
Db|----------------------------------555-|

This is the second part where two guitars are used, I know the spaceing is pretty 
but it's really easy to figure out;

Guitar 1
Eb|--------------------------------------------------------------|
Bb|--------------------------------------------------------------|
Gb|-----7-----7-----7-----7-----7~-------7-----7-----7-----7-----|
Db|-4-5---4-5---4-5---4-5---4-5------4-5---4-5---4-5---4-5---555-|
Ab|----------------------------------------------------------555-|
Db|----------------------------------------------------------555-|
  |                                                              |
Guitar 2                                                         |
Eb|--------------------------------------------------------------|
Bb|--------------------------------------------------------------|
Gb|-77777777777777-444-55555555555555----------------------------|
Db|-77777777777777-444-55555555555555-555------------------------|
Ab|-55555555555555-222-33333333333333-555------------------------|
Db|-----------------------------------555------------------------|

Final Chorus:
Eb|--------------------------------------|
Bb|--------------------------------------|
Gb|-77777777777777-444-5555555555555-----|
Db|-77777777777777-444-5555555555555-555-|
Ab|-55555555555555-222-3333333333333-555-|
Db|----------------------------------555-|

Eb|------------------------------------------|
Bb|------------------------------------------|
Gb|-77777777777777-444-5555555555555---------|
Db|-77777777777777-444-5555555555555-5-22-2~-|
Ab|-55555555555555-222-3333333333333-5-22-2~-|
Db|----------------------------------5-22-2~-|
                                       ..

That's it, enjoy!
Tap to rate this tab
 
# A B C D E F G H I J K L M N O P Q R S T U V W X Y Z