Song name
# A B C D E F G H I J K L M N O P Q R S T U V W X Y Z

Reuben - Stux tab

-------------------------------------------------------------------------------
			     Stux- Reuben
-------------------------------------------------------------------------------
Tabbed by: mike
Email:

Tuning: Normal Tuning (standard)

These guy rule, go visit their site its just be re-done and is really good
their Album Racecar Is Racecar backwards is out very soon... june i think
TAB 20/5/2004.

e|-------------------------------------------------------------------------|
B|-------------------------------------------------------------------------|
G|-------------------------------------------------------------------------|
D|--44--4--44--4----88--8--88--8------11-11--11--11-11----11----12---------|
A|--44--4--44--4----88--8--88--8------11-11--11--11-11-----9----12-X10-----|
E|--22--2--22--2----66--6--66--6------9--9----9--9--9------9----10---------


e|--------------------------------------------------------------------------
B|--------------------------------------------------------------------------
G|--------------------------------------------------------------------------
D|----44---4---44---4-------88---8---88---8---------11-11----11---11-11----
A|----44---4---44---4-------88---8---88---8---------11-11----11---11-11-----
E|----22---2---22---2-------66---6---66---6---------9--9-----9----9--9------

thats the main part of the intro theres a part at the where it goes down slightly
i just play 9
            9
            9  which is prob wrong so i didnt add.
Please feel free to eleborate on these tabs, thankyou
===============================================================================

| /  slide up
| \  slide down
| h  hammer-on
| p  pull-off
| ~  vibrato
| +  harmonic
| x  Mute note
===============================================================================
Tap to rate this tab
 
# A B C D E F G H I J K L M N O P Q R S T U V W X Y Z