Song name
# A B C D E F G H I J K L M N O P Q R S T U V W X Y Z

Reuben - Lets Stop Hanging Out tab

Artist : Reuben
Song : Let's Stop Hanging Out
Album : Racecar is Racecar Backwards
Tabbed by : Kon-Foozed
Email : staticjoeuk@yahoo.co.uk

The tabs for this song just seem a little off to me and I'm pretty sure all of this bar 
possibly two guitar's chorus sounds right. Enjoy!
Also, it is C#G#F#A#D#          But I think it sounds ok on DADGBE as well.

Verse 1 : -

e------------------------------------|
b------------------------------------|
g--77-777-777-777-777-777-777-777----|
d--77-777-777-777-777-777-777-777----|
a--55-555-555-555-555-555-555-555----|
d--00-000-000-000-000-000-000-000----| x2

e------------------------------------|
b------------------------------------|
g------------------------------------| (There is a possible 7 here)
d--77-777-777-777-777-777-777-777----|
a--55-555-555-555-555-555-555-555----|
d--33-333-333-333-333-333-333-333----|

e------------------------------------|
b------------------------------------|
g--77-777-777-777-777-777-777-777----|
d--77-777-777-777-777-777-777-777----|
a--55-555-555-555-555-555-555-555----|
d--00-000-000-000-000-000-000-000----|

e------------------------------------|
b------------------------------------|
g------------------------------------|
d--77-777-777-777-777-777-777-777----|
a--55-555-555-555-555-555-555-555----|
d--33-333-333-333-555-555-555-555----|

Chorus : -

e-------------------------------------|
b-------------------------------------|
g-------------------9999-7-----9999-7-|
d--33-333-55-56--0--9999-7--0--7777-7-|
a--33-333-55-56--0--7777-5--0--7777-5-|
d--33-333-55-56--0----------0---------| x2

Then back to the verse..

Verse 2 : -

e------------------------------------|
b------------------------------------|
g--77-777-777-777-777-777-777-777----|
d--77-777-777-777-777-777-777-777----|
a--55-555-555-555-555-555-555-555----|
d--00-000-000-000-000-000-000-000----|

e------------------------------------|
b------------------------------------|
g------------------------------------|
d--77-777-777-777-777-777-777-777----|
a--55-555-555-555-555-555-555-555----|
d--33-333-333-333-333-333-333-333----|

e------------------------------------|
b------------------------------------|
g--77-777-777-777-777-777-777-777----|
d--77-777-777-777-777-777-777-777----|
a--55-555-555-555-555-555-555-555----|
d--00-000-000-000-000-000-000-000----|

e------------------------------------|
b------------------------------------|
g------------------------------------|
d--77-777-777-777-777-777-777-777----|
a--55-555-555-555-555-555-555-555----|
d--33-333-333-333-555-555-555-555----|

Chorus : -

e-------------------------------------|
b-------------------------------------|
g-------------------9999-7-----9999-7-|
d--33-333-55-56--0--9999-7--0--7777-7-|
a--33-333-55-56--0--7777-5--0--7777-5-|
d--33-333-55-56--0----------0---------| x3

Bridge : -

e------------------------------------|
b------------------------------------|
g------------------------------------|
d--00-10-0-10-12-44-00-432-----------|
a--00-10-0-10-12-44-00-432-----------|
d--00-10-0-10-12-44-00-432-----------| x 3

e------------------------------------|
b------------------------------------|
g------------------------------------|
d--00-10-0-xxx-44-00-432-------------|
a--00-10-0-xxx-44-00-432-------------|
d--00-10-0-xxx-44-00-432-------------|

Some vocals alone and then :

e|--------------------------------------|
b|--------------------------------------|
g|--8-8-888-8-8-88-8-9-9-999-9-9-99-9---|
d|--------------------------------------|
a|--6-6-666-6-6-66-6-7-7-777-7-7-77 7---|
d|--------------------------------------|

e|--------------------------------------|
b|--------------------------------------|
g|--8-8-888-8-8-88-8-7-7-777-7-7-77-7---|
d|--------------------------------------|
a|--6-6-666-6-6-66-6-5-5-555-5-5-55 5---|
d|--------------------------------------|

e|-------------------------------------|
b|-------------------------------------|
g|--5-5-555-5-5-55-5-8-8-888-8888888---|
d|-------------------------------------|
a|--3-3-333-3-3-33-3-6-6-666-6666666---|
d|-------------------------------------|

Outro : -

e|-------------------------------------|
b|-------------------------------------|
g|--555555555555--88888888-------------|
d|--555555555555--88888888-------------|
a|--333333333333--66666666-------------|
d|-------------------------------------|

e|-------------------------------------|
b|-------------------------------------|
g|--1010101010101010-888888888888------|
d|--1010101010101010-888888888888------|
a|---8-8-8-8-8-8-8-8-666666666666------|
d|-------------------------------------| x2

Vocals and Drums then end. :D


Hope it's ok for everyone, enjoy.
Tap to rate this tab
# A B C D E F G H I J K L M N O P Q R S T U V W X Y Z