Song name
# A B C D E F G H I J K L M N O P Q R S T U V W X Y Z

Reuben - Eating Only Apples tab

ARTIST/BAND: Reuben
SONG: Once
RELEASED ON: Racecar Is Racecar Backwards 
GUITARIST: Jamie Lenman
TABBED BY: Aiden

TUNING: C# G# C# F# Bb D#
 
 
INTRO/VERSE:
”Her lips are soft and Swedish.”
D#]--------------------------------|
Bb]--------------------------------| 
F#]--------5------------5----------|
C#]------4----------------4--------|
G#]----5--------------------5------|
C#]--0------------------------0h3--|
 
D#]------------------------------|
Bb]------------------------------|
F#]--7-7-7-7-7-----7-7-7-7-7-----|
C#]--7-7-7-7-7-----7-7-7-7-7-----| x 3
G#]--5-5-5-5-5-----5-5-5-5-5-----|
C#]--0-0-0-0-0-----0-0-0-0-0-3b--|
 
D#]-----------------------------------------|
Bb]-----------------------------------------|
F#]-----------------------------------------|
C#]--10-10-10-9-9-9-10-10-10-9-9-9-7-7-5-5--|
G#]---x--x--x-x-x-x--x--x--x-x-x-x-x-x-x-x--|
C#]--10-10-10-9-9-9-10-10-10-9-9-9-7-7-5-5--|


VERSE 2 – HEAVY:
”Summer bleeds into my skin and...”
D#]-------------------------------------------------------------------------------|
Bb]-------------------------------------------------------------------------------|
F#]-------------------------------------------------------------------------------|
C#]--0-0-0-0-0-0-0-0-0-0-0-0-0-0-0-0-12-12-12-12-12-12-12-12-12-12-12-12-7-7-5-5--|
G#]--0-0-0-0-0-0-0-0-0-0-0-0-0-0-0-0-10-10-10--9--9--9-10-10-10--9--9--9-7-7-5-5--|
C#]--0-0-0-0-0-0-0-0-0-0-0-0-0-0-0-0-10-10-10--9--9--9-10-10-10--9--9--9-7-7-5-5--|
 
D#]-----------------------------------------------------------------|
Bb]-----------------------------------------------------------------|
F#]-----------------------------------------------------------------|
C#]--4-4-4-4-0-0-0-0-0-0-0-0-0-0-0-0-3-3-3-3-3-3-3-3-3-----3--------|
G#]--4-4-4-4-0-0-0-0-0-0-0-0-0-0-0-0-3-3-3-3-3-3-3-3-3-3h5---5-3p0--|
C#]--4-4-4-4-0-0-0-0-0-0-0-0-0-0-0-0-3-3-3-3-3-3-3-3-3--------------|
 
D#]-------------------------------------------------------------------------------|
Bb]-------------------------------------------------------------------------------|
F#]-------------------------------------------------------------------------------|
C#]--0-0-0-0-0-0-0-0-0-0-0-0-0-0-0-0-12-12-12-12-12-12-12-12-12-12-12-12-7-7-5-5--|
G#]--0-0-0-0-0-0-0-0-0-0-0-0-0-0-0-0-10-10-10--9--9--9-10-10-10--9--9--9-7-7-5-5--|
C#]--0-0-0-0-0-0-0-0-0-0-0-0-0-0-0-0-10-10-10--9--9--9-10-10-10--9--9--9-7-7-5-5--|
 
D#]-------------------------------------------------------------------|
Bb]-------------------------------------------------------------------|
F#]-------------------------------------------------------------------|
C#]--4-4-4-4-0-0-0-0-0-0-0-0-0-0-0-0-3-3-3-3-3-3-3-3-3-3-3-3-3-3-3-3--|
G#]--4-4-4-4-0-0-0-0-0-0-0-0-0-0-0-0-3-3-3-3-3-3-3-3-3-3-3-3-3-3-3-3--|
C#]--4-4-4-4-0-0-0-0-0-0-0-0-0-0-0-0-3-3-3-3-3-3-3-3-3-3-3-3-3-3-3-3--|
 
CHORUS:
”And I won’t come down to Earth.”
D#]-------------------------------------------------------------|
Bb]-------------------------------------------------------------|
F#]-------------------------------------------------------------|
C#]--9---9-9-9-7---7-7-7-7-9-9-9-4----4-4-5-4----4-4-4-4-4-4-4--|
G#]--5---5-5-5-3---3-3-3-3-5-5-5-0----0-0-0-0----0-0-0-0-0-0-0--|
C#]--5---5-5-5-3---3-3-3-3-5-5-5-0----0-0-0-0----0-0-0-0-0-0-0--|
 
D#]---------------------------------------------------------------|
Bb]---------------------------------------------------------------|
F#]-------------------------7--7----------------------------------|
C#]--9---9-9-9-7---7-7-7-7--5--5---4----4-4-5-4----4-4-4-4-4-4-4--|
G#]--5---5-5-5-3---3-3-3-3--3--3---0----0-0-0-0----0-0-0-0-0-0-0--|
C#]--5---5-5-5-3---3-3-3-3---------0----0-0-0-0----0-0-0-0-0-0-0--|
 
D#]-------------------------------------------------------------|
Bb]-------------------------------------------------------------|
F#]-------------------------------------------------------------|
C#]--9---9-9-9-7---7-7-7-7-9-9-9-4----4-4-5-4----4-4-4-4-4-4-4--|
G#]--5---5-5-5-3---3-3-3-3-5-5-5-0----0-0-0-0----0-0-0-0-0-0-0--|
C#]--5---5-5-5-3---3-3-3-3-5-5-5-0----0-0-0-0----0-0-0-0-0-0-0--|
 
D#]---------------------------------------|
Bb]---------------------------------------|
F#]---------------------------------------|
C#]--9---9-9-9-10---10-10-10-10-10-10-10--|
G#]--5---5-5-5--8----8--8--8--8--8--8--8--|
C#]--5---5-5-5--8----8--8--8--8--8--8--8--|
 
OUTRO:
D#]-----------------------------------------------------------------------|
Bb]-----------------------------------------------------------------------|
F#]-----------------------------------------------------------------------|
C#]--0-0-0-0-4-0-0-6-0-0-7-0-10-10-10-10-0-0-0-0-4-0-0-6-0-0-7-0-9-9-9-9--| x 4
G#]--0-0-0-0-4-0-0-6-0-0-7-0-10-10-10-10-0-0-0-0-4-0-0-6-0-0-7-0-9-9-9-9--| 
C#]--0-0-0-0-4-0-0-6-0-0-7-0-10-10-10-10-0-0-0-0-4-0-0-6-0-0-7-0-9-9-9-9--|
PM   . . . . . . . . . . . .  .  .  .  . . . . . . . . . . . . . . . . .

D#]---------------------------------------------------------------------------|
Bb]---------------------------------------------------------------------------|
F#]--------------------------11-11-11-11-------------------------10-10-10-10--|
C#]--0-0-0-0-4-0-0-6-0-0-7-0-10-10-10-10-0-0-0-0-4-0-0-6-0-0-7-0--9--9--9--9--| x 4
G#]--0-0-0-0-4-0-0-6-0-0-7-0-10-10-10-10-0-0-0-0-4-0-0-6-0-0-7-0--9--9--9--9--|
C#]--0-0-0-0-4-0-0-6-0-0-7-0-10-10-10-10-0-0-0-0-4-0-0-6-0-0-7-0--9--9--9--9--|
Tap to rate this tab
# A B C D E F G H I J K L M N O P Q R S T U V W X Y Z