Guitaretab - guitar tabs
Song name
# A B C D E F G H I J K L M N O P Q R S T U V W X Y Z

Reuben - No One Wins The War tab

ARTIST/BAND: Reuben
SONG: No One Wins The War
RELEASED ON: Racecar Is Racecar Backwards 
GUITARIST: Jamie Lenman
TABBED BY: Aiden

TUNING: C# G# C# F# Bb C#

 
INTRO: 
C#]-----------------------------------|
Bb]--------8--------8--------8--------|
F#]-------11-------11-------11--------|
C#]--0--x-----x--x-----x--x----10-10--| x 4
G#]--0--x-----x--x-----x--x----10-10--|
C#]--0--x-----x--x-----x--x----10-10--|
 
VERSE:
"You try my patience..." 
C#]-----------------------------------|
Bb]-----------------------------------|
F#]-------11-------11-------11--------|
C#]--0--x-----x--x-----x--x----10-10--| x 4
G#]--0--x-----x--x-----x--x----10-10--|
C#]--0--x-----x--x-----x--x----10-10--|
 
CHORUS: 
"Hell is for heroes...
C#]-----------------------------|------------------------------------|
Bb]-----------------------------|------------------------------------|
F#]-----------------------------|------------------------------------|
C#]-5--5-5--5--5-5--5--5-5--3-3-|-5--5-5--5--5-5--10-10-10-12-12-12--|
G#]-5--5-5--5--5-5--5--5-5--3-3-|-5--5-5--3--3-3--8--8--8--10-10-10--|
C#]-5--5-5--3--3-3--2--2-2--3-3-|-5--5-5--3--3-3--8--8--8--10-10-10--|
 
C#]------------------------------|------------------------|
Bb]------------------------------|------------------------|
F#]------------------------------|------------------------|
C#]--5--5-5--5--5-5--5--5-5--3-3-|-5--5-5--5--5-5--2---3--|
G#]--5--5-5--5--5-5--5--5-5--3-3-|-5--5-5--5--5-5--2---3--|
C#]--5--5-5--3--3-3--2--2-2--3-3-|-5--5-5--3--3-3--2---3--|

VERSE: 
"In times of trouble..."
C#]-----------------------------------|
Bb]--------8--------8--------8--------|
F#]-------11-------11-------11--------|
C#]--0--x-----x--x-----x--x----10-10--| x 6
G#]--0--x-----x--x-----x--x----10-10--|
C#]--0--x-----x--x-----x--x----10-10--|
 
BRIDGE:
C#]---------------------|
Bb]---------------------| 
F#]---------------------|
C#]--12----12-10-10/12--|
G#]---x-----x--x--x--x--|
C#]--12----12-10-10/12--|

"I crack under pressure..."
C#]---------------------------------------------|
Bb]---------------------------------------------|
F#]------------5--5-----------------------------|
C#]--3-4-0--0--5--5--6--6-6-7-9--9--4--4--3--3--| x 2
G#]--3-4-0--0--3--3--6--6-6-7-9--9--4--4--3--3--|
C#]--3-4-0--0--------6--6-6-7-9--9--4--4--3--3--|
 

He plays these next chords lots of times - I can't be arsed to write them all out
C#]-----------------------------|
Bb]-----------------------------|
F#]----------------13-15-17-16--|
C#]--12--10-10/12--12-14-16-15--|
G#]---x---x--x--x---x--x--x--x--|
C#]--12--10-10/12--12-14-16-15--|
 

"When I was younger..."
C#]------|-----------------------------|------------------------------------|
Bb]------|-----------------------------|------------------------------------|
F#]------|-----------------------------|------------------------------------|
C#]--3-4-|-5--5-5--5--5-5--5--5-5--3-3-|-5--5-5--5--5-5--10-10-10-12-12-12--|
G#]--3-4-|-5--5-5--5--5-5--5--5-5--3-3-|-5--5-5--5--5-5--8--8--8--10-10-10--|
C#]--3-4-|-5--5-5--3--3-3--2--2-2--3-3-|-5--5-5--3--3-3--8--8--8--10-10-10--|

 
C#]------------------------------|------------------------------------|
Bb]------------------------------|------------------------------------|
F#]------------------------------|------------------------------------|
C#]--5--5-5--5--5-5--5--5-5--3-3-|-5--5-5--5--5-5--10-10-10-10-10-10--|
G#]--5--5-5--5--5-5--5--5-5--3-3-|-5--5-5--5--5-5--8--8--8--10-10-10--|
C#]--5--5-5--3--3-3--2--2-2--3-3-|-5--5-5--3--3-3--8--8--8--10-10-10--|

 
"But everything changes..."
C#]--------------------------------------|
Bb]--------------------------------------|
F#]--------------------------------------|
C#]----5---5---5---3---5---5---10----12--|
G#]--5---5---5---5---5---5---8----10-----|
C#]--5---3---2---3---5---3---8----10-----|
 
[ Tab from: http://www.guitaretab.com/r/reuben/52438.html ]
C#]--------------------------------------0----0------|
Bb]--------------------------------------------------|
F#]--------------------------------------------------|
C#]----5---5---5---3---5---5-10--12----11---11---11--|
G#]--5---5---5---5---5---5----8--10------------------|
C#]--5---3---2---3---5---3----8--10--9---------------|
 
"It's all lost now..."
C#]-------0----0----------0-------------------------------------|
Bb]-------------------------------------------------------------|
F#]-------------------------------------------------------------|
C#]----11---11---11----11---11-11-11-11-11-11-11-11-11-12----7--|
G#]------------------0-------7--7--7--8--8--8--8--8--8--9----4--|
C#]--9---------------0-------7--7--7--8--8--8--8--8--8--9----4--|
 
"It's all a mess now..."
C#]-------0----0----------0-----------------------------------------|
Bb]-----------------------------------------------------------------|
F#]-----------------------------------------------------------------|
C#]----11---11---11----11---11-11-11-11-11-11-11-11-11-8-8-8-8-8-8--|
G#]------------------0-------7--7--7--8--8--8--8--8--8-4-4-4-4-4-4--|
C#]--9---------------0-------7--7--7--8--8--8--8--8--8-4-4-4-4-4-4--|
 
"To my shame, and to my discomfort..."
C#]---------------------------------------------------------|
Bb]---------------------------------------------------------|
F#]---------------------------------------------------------|
C#]--12---12-12-12-12-7----11----11-11-11-11-11-11-12----7--|
G#]---9----9--9--9--9-0-----7-----8--8--8--8--8--8--9----4--|
C#]---9----9--9--9--9-0-----7-----8--8--8--8--8--8--9----4--|
 
"I have never..."
C#]-------------------------------------------------------------|
Bb]-------------------------------------------------------------|
F#]-------------------------------------------------------------|
C#]--12---12-12-12-12-7----11----11-11-11-11-11-11-8-8-8-8-8-8--|
G#]---9----9--9--9--9-0-----7-----8--8--8--8--8--8-4-4-4-4-4-4--|
C#]---9----9--9--9--9-0-----7-----8--8--8--8--8--8-4-4-4-4-4-4--|

"That you will find me out..."
C#]---------------------------------------------------------------------|
Bb]---------------------------------------------------------------------|
F#]---------------------------------------------------------------------|
C#]--0--0-0-0-0-0--0-0-0-0-5--5-5-5-5-5--5-5-5-5-8--8-8-8-8-8--8-8-8-8--|
G#]--0--0-0-0-0-0--0-0-0-0-5--5-5-5-5-5--5-5-5-5-8--8-8-8-8-8--8-8-8-8--|
C#]--0--0-0-0-0-0--0-0-0-0-5--5-5-5-5-5--5-5-5-5-8--8-8-8-8-8--8-8-8-8--|
 
C#]--------------------------------------------------------------------------|
Bb]--------------------------------------------------------------------------|
F#]--------------------------------------------------------------------------|
C#]--0--0-0-0-0-0--0-0-0-0-5--5-5-5-5-9--9-9-9-9-8--8-8-8-8-10--10-10-10-10--|
G#]--0--0-0-0-0-0--0-0-0-0-5--5-5-5-5-9--9-9-9-9-8--8-8-8-8-10--10-10-10-10--|
C#]--0--0-0-0-0-0--0-0-0-0-5--5-5-5-5-9--9-9-9-9-8--8-8-8-8-10--10-10-10-10--|
 
C#]---------------------------------------------------------------------|
Bb]---------------------------------------------------------------------|
F#]---------------------------------------------------------------------|
C#]--0--0-0-0-0-0--0-0-0-0-5--5-5-5-5-5--5-5-5-5-8--8-8-8-8-8--8-8-7-8--|
G#]--0--0-0-0-0-0--0-0-0-0-5--5-5-5-5-5--5-5-5-5-8--8-8-8-8-8--8-8-7-8--|
C#]--0--0-0-0-0-0--0-0-0-0-5--5-5-5-5-5--5-5-5-5-8--8-8-8-8-8--8-8-7-8--|
 
C#]--------------------------------------------------------------------------|
Bb]--------------------------------------------------------------------------|
F#]--------------------------------------------------------------------------|
C#]--0--0-0-0-0-0--0-0-0-0-5--5-5-5-5-9--9-9-9-9-8--8-8-8-8-10--10-10-10-10--|
G#]--0--0-0-0-0-0--0-0-0-0-5--5-5-5-5-9--9-9-9-9-8--8-8-8-8-10--10-10-10-10--|
C#]--0--0-0-0-0-0--0-0-0-0-5--5-5-5-5-9--9-9-9-9-8--8-8-8-8-10--10-10-10-10--|
 
C#]---------------------------------------------------------------------|
Bb]---------------------------------------------------------------------|
F#]---------------------------------------------------------------------|
C#]--0--0-0-0-0-0--0-0-0-0-5--5-5-5-5-5--5-5-5-5-8--8-8-8-8-8--8-8-8-8--|
G#]--0--0-0-0-0-0--0-0-0-0-5--5-5-5-5-5--5-5-5-5-8--8-8-8-8-8--8-8-8-8--|
C#]--0--0-0-0-0-0--0-0-0-0-5--5-5-5-5-5--5-5-5-5-8--8-8-8-8-8--8-8-8-8--|
 
C#]-----------------------------------------------|
Bb]-----------------------------------------------|
F#]-----------------------------------------------|
C#]--0--0-0-0-0-0--0-0-0-0-5--5-5-5-5-9---8---10--|
G#]--0--0-0-0-0-0--0-0-0-0-5--5-5-5-5-9---8---10--|
C#]--0--0-0-0-0-0--0-0-0-0-5--5-5-5-5-9---8---10--|
 
C#]---------------------------------------------------------------------|
Bb]---------------------------------------------------------------------|
F#]---------------------------------------------------------------------|
C#]--0--0-0-0-0-0--0-0-0-0-5--5-5-5-5-5--5-5-5-5-8--8-8-8-8-8--8-8-8-8--|
G#]--0--0-0-0-0-0--0-0-0-0-5--5-5-5-5-5--5-5-5-5-8--8-8-8-8-8--8-8-8-8--|
C#]--0--0-0-0-0-0--0-0-0-0-5--5-5-5-5-5--5-5-5-5-8--8-8-8-8-8--8-8-8-8--|
 
C#]-----------------------------------------------|
Bb]-----------------------------------------------|
F#]-----------------------------------------------|
C#]--0--0-0-0-0-0--0-0-0-0-5--5-5-5-5-9---8---10--|
G#]--0--0-0-0-0-0--0-0-0-0-5--5-5-5-5-9---8---10--|
C#]--0--0-0-0-0-0--0-0-0-0-5--5-5-5-5-9---8---10--|
 
"Yeah!"
C#]-----------------------------------|
Bb]--------8--------8--------8--------|
F#]-------11-------11-------11--------|
C#]--0--x-----x--x-----x--x----10-10--| x 4
G#]--0--x-----x--x-----x--x----10-10--|
C#]--0--x-----x--x-----x--x----10-10--|
Related for No One Wins The War tab