Song name
# A B C D E F G H I J K L M N O P Q R S T U V W X Y Z

Reuben - Stuck In My Throat tab

ARTIST/BAND: Reuben
SONG: Stuck In My Throat
RELEASED ON: Racecar Is Racecar Backwards 
GUITARIST: Jamie Lenman
TABBED BY: Aiden

TUNING: C# G# C# F# Bb C#

  
INTRO: 
C#]--------------------------------|
Bb]--------------------------------|
F#]--------------------------------|
C#]--1-1-1-1-0-0-0--1-1-1-1-0-0-0--|
G#]--1-1-1-1-0-0-0--1-1-1-1-0-0-0--|
C#]--1-1-1-1-0-0-0--1-1-1-1-0-0-0--|
 
PRE-VERSE: 
C#]--------------------------------------------------------------|
Bb]--------------------------------------------------------------|
F#]--------------------------------------------------------------|
C#]--1-1-1-1-0-0-0--1-1-1-1-0-0-0--1-1-1-1-0-0-0--1-1-1-1-0-0-0--|
G#]--1-1-1-1-0-0-0--1-1-1-1-0-0-0--1-1-1-1-0-0-0--1-1-1-1-0-0-0--|
C#]--1-1-1-1-0-0-0--1-1-1-1-0-0-0--1-1-1-1-0-0-0--1-1-1-1-0-0-0--|
 
VERSE 1:
"These wars of words are pointless..."
C#]----------------------------------------------------------------------------------|
Bb]----------------------------------------------------------------------------------|
F#]--5-5-5--5--5-5-5--5--5-5-5--5-x-x-x--x-5-5-5--5--5-5-5--5-5-5-5--5---------------|
C#]--4-4-4--4--4-4-4--4--4-4-4--4-x-x-x--x-4-4-4--4--4-4-4--4-4-4-4--4--4-0-4-0-4-0--|
G#]--4-4-4--4--4-4-4--4--4-4-4--4-x-x-x--x-4-4-4--4--4-4-4--4-4-4-4--4--4-0-4-0-4-0--|
C#]--4-4-4--4--4-4-4--4--4-4-4--4-x-x-x--x-4-4-4--4--4-4-4--4-4-4-4--4--4-0-4-0-4-0--|
 
C#]--------------------------------------------------------------|
Bb]--------------------------------------------------------------|
F#]--------------------------------------------------------------|
C#]--------------------------------------------------------------|
G#]--1-1-1-1-0-0-0--1-1-1-1-0-0-0--1-1-1-1-0-0-0--1-1-1-1-0-0-0--|
C#]--1-1-1-1-0-0-0--1-1-1-1-0-0-0--1-1-1-1-0-0-0--1-1-1-1-0-0-0--|
 
"To see you bent and broken..."
C#]-----------------------------------------------------------------|
Bb]-----------------------------------------------------------------|
F#]--5-5-5--5--5-5-5--5-6-6-6-6-6-6-5-5-5-5-5-5-5-5-5--5--5-5-5--5--|
C#]--4-4-4--4--4-4-4--4-x-x-x-x-x-x-x-x-x-x-x-x-4-4-4--4--4-4-4--4--|
G#]--4-4-4--4--4-4-4--4-4-4-4-4-4-4-3-3-3-3-3-3-4-4-4--4--4-4-4--4--|
C#]--4-4-4--4--4-4-4--4-------------------------4-4-4--4--4-4-4--4--|
 
C#]-----------------------|
Bb]-----------------------|
F#]--10-10-10-10-10-10-8--|
C#]---x--x--x--x--x--x-x--|
G#]---8--8--8--8--8--8-6--|
C#]-----------------------|
  
C#]--------------------------------------------------------------|
Bb]--------------------------------------------------------------|
F#]--------------------------------------------------------------|
C#]--1-1-1-1-0-0-0--1-1-1-1-0-0-0--1-1-1-1-0-0-0--1-1-1-1-0-0-0--|
G#]--1-1-1-1-0-0-0--1-1-1-1-0-0-0--1-1-1-1-0-0-0--1-1-1-1-0-0-0--|
C#]--1-1-1-1-0-0-0--1-1-1-1-0-0-0--1-1-1-1-0-0-0--1-1-1-1-0-0-0--|
 
PRE-CHORUS:
"Yeah, you're sorry..."
C#]--------------------------------------|
Bb]--------------------------------------|
F#]------------------5-5-5--5--5-5-5--5--|
C#]--10~-----10~-----4-4-4--4--4-4-4--4--| x2
G#]---8~------7~-----4-4-4--4--4-4-4--4--|
C#]---8~------7~-----4-4-4--4--4-4-4--4--|




"Yea-ea-ea-ea..."
C#]---------------------------------|
Bb]---------------------------------|
F#]--------------------5-5-5-5-5-5--|
C#]--10-10-10-10-10-10-4-4-4-4-4-4--|
G#]---8--8--8--7--7--7-4-4-4-4-4-4--|
C#]---8--8--8--7--7--7-4-4-4-4-4-4--|
   
CHORUS:                                             
"And I thought I heard you say...."   
C#]-----------------------------------------------------------------------------------------|
Bb]-----------------------------------------------------------------------------------------|
F#]--6--6-6-6-6--6--6-6-6-6--6--6-6-6-6--8-8-----5--5-5-5-5--5--5-5-5-5--5--5-5-5-5--5-5-5--|
C#]--6--6-6-6-6--6--6-6-6-6--6--6-6-6-6--8-8-----4--4-4-4-4--4--4-4-4-4--4--4-4-4-4--4-4-4--| x3
G#]--4--4-4-4-4--4--4-4-4-4--4--4-4-4-4--6-6-(0)-4--4-4-4-4--4--4-4-4-4--4--4-4-4-4--4-4-4--|
C#]------------------------------------------(0)-4--4-4-4-4--4--4-4-4-4--4--4-4-4-4--4-4-4--|
 
C#]---------------------------------------------------------------------------------------------|
Bb]---------------------------------------------------------------------------------------------|
F#]--6--6-6-6-6--6--6-6-6-6--6--6-6-6-6--------5--5-5-5-5--5--5-5-5-5--5--5-5-5-5---------------|
C#]--6--6-6-6-6--6--6-6-6-6--6--6-6-6-6--8-8-8-4--4-4-4-4--4--4-4-4-4--4--4-4-4-4--4-0-4-0-4-0--|
G#]--4--4-4-4-4--4--4-4-4-4--4--4-4-4-4--6-6-6-4--4-4-4-4--4--4-4-4-4--4--4-4-4-4--4-0-4-0-4-0--|
C#]--------------------------------------6-6-6-4--4-4-4-4--4--4-4-4-4--4--4-4-4-4--4-0-4-0-4-0--|
 
PRE-VERSE:
C#]--------------------------------------------------------------|
Bb]--------------------------------------------------------------|
F#]--------------------------------------------------------------|
C#]--1-1-1-1-0-0-0--1-1-1-1-0-0-0--1-1-1-1-0-0-0--1-1-1-1-0-0-0--|
G#]--1-1-1-1-0-0-0--1-1-1-1-0-0-0--1-1-1-1-0-0-0--1-1-1-1-0-0-0--|
C#]--1-1-1-1-0-0-0--1-1-1-1-0-0-0--1-1-1-1-0-0-0--1-1-1-1-0-0-0--|
 
VERSE 2:
C#]-------------------------|
Bb]------6~----------6~-----|
F#]------x-----------x------|
C#]------4~----------4~-----|
G#]--4~----------4~---------|
C#]--4~----------4~---------|

C#]--------------------------------------------------------------|
Bb]--------------------------------------------------------------|
F#]--------------------------------------------------------------|
C#]--------------------------------------------------------------|
G#]--1-1-1-1-0-0-0--1-1-1-1-0-0-0--1-1-1-1-0-0-0--1-1-1-1-0-0-0--|
C#]--1-1-1-1-0-0-0--1-1-1-1-0-0-0--1-1-1-1-0-0-0--1-1-1-1-0-0-0--|
 
C#]--------------------------------------|
Bb]------6~----------6~---6-6-6-6-6-6-6--|
F#]------5~----------5~---5-5-5-5-5-5-5--|
C#]------4~----------4~---4-4-4-4-4-4-4--|
G#]--4~----------4~-------4-4-4-4-4-4-4--|
C#]--4~----------4~-------4-4-4-4-4-4-4--|
 
BRIDGE:
C#]--------------------------------------------------------------------------|
Bb]--------------------------------------------------------------------------|
F#]-11-11-11-11-11-11-11-11-11-11-11-13-11-11-11-11-11-11-11-11-11-11-11-11--|
C#]--x--x--x--x--x--x--x--x--x--x--x--x--x--x--x--x--x--x--x--x--x--x--x--x--|
G#]--9--9--9--9--9--9--9--9--9--9--9-11--9--9--9--9--9--9--9--9--9--9--9--9--|
C#]--------------------------------------------------------------------------|
 


C#]---------------------------------------------------------------------|
Bb]---------------------------------------------------------------------|
F#]--10/11-11-11-11-11-11-11-11-11-11-11-11-8-8-8-8-8-6-5-5-5-10-10-10--|
C#]---x-x--x--x--x--x--x--x--x--x--x--x--x--x-x-x-x-x-x-x-x-x--x--x--x--|
G#]---8/9--9--9--9--9--9--9--9--9--9--9--9--6-6-6-6-6-4-3-3-3--8--8--8--|
C#]---------------------------------------------------------------------|

”You’re kitten as a cat!”
C#]---------------------------------------------------------------------------|
Bb]---------------------------------------------------------------------------|
F#]--11-11-11-11-11-11-11-11-11-11-11-11-11-11-11-11-11-11-11-11-11-11-11-11--|
C#]---x--x--x--x--x--x--x--x--x--x--x--x--x--x--x--x--x--x--x--x--x--x--x--x--|
G#]---9--9--9--9--9--9--9--9--9--9--9--9--9--9--9--9--9--9--9--9--9--9--9--9--|
C#]--13-13-13-13-13-13-13-13-13-13-13-13--0--0--0--0--0--0--0--0--0--0--0--0--|
 
C#]--------------------------------------------------------------------------|
Bb]--------------------------------------------------------------------------|
F#]--11-11-11-11-11-11-11-11-11-11-11-11-8--8--8--8--8--8--8--8--8--8--8--8--|
C#]---x--x--x--x--x--x--x--x--x--x--x--x-x--x--x--x--x--x--x--x--x--x--x--x--|
G#]---9--9--9--9--9--9--9--9--9--9--9--9-6--6--6--6--6--6--6--6--6--6--6--6--|
C#]--11-11-11-11-11-11-11-11-11-11-11-11-6--6--6--6--6--6--6--6--6--6--6--6--|
 
PRE-CHORUS:
"Yeah, you're sorry..."
C#]------------------------------------------|
Bb]------------------------------------------|
F#]----------10~-----------------------------|
C#]--10~------x------------------------------|
G#]---8~------7~---------8~---7~---4~---4-4--|
C#]---8~------7~---------8~---7~---4~---4—4--|
 
C#]----------------------------------|
Bb]----------------------------------|
F#]----------------------------------|
C#]--10-10-10-10-10-10--4-4-4-4-4-4--|
G#]---8--8--8--7--7--7--4-4-4-4-4-4--|
C#]---8--8--8--7--7--7--4-4-4-4-4-4--|
PM    .  .  .  .  .  .

             "And I thought I heard you say..."
C#]---------------------------------------------------------------------------------|
Bb]---------------------------------------------------------------------------------|
F#]--6-6-6-6--------------------8--------5--5-5-5-5--5--5-5-5-5--5--5-5-5-5--5-5-5--|
C#]--6-6-6-6--------------------8--------4--4-4-4-4--4--4-4-4-4--4--4-4-4-4--4-4-4--|
G#]--4-4-4-4--------------------6--------4--4-4-4-4--4--4-4-4-4--4--4-4-4-4--4-4-4--|
C#]--------------------------------------4--4-4-4-4--4--4-4-4-4--4--4-4-4-4--4-4-4--|
 
C#]---------------------------------------------------------------------------------|
Bb]---------------------------------------------------------------------------------|
F#]--6--6-6-6-6--6--6-6-6-6--6--6--8--8--5--5-5-5-5--5--5-5-5-5--5--5-5-5-5--5-5-5--|
C#]--6--6-6-6-6--6--6-6-6-6--6--6--8--8--4--4-4-4-4--4--4-4-4-4--4--4-4-4-4--4-4-4--|
G#]--4--4-4-4-4--4--4-4-4-4--4--4--6--6--4--4-4-4-4--4--4-4-4-4--4--4-4-4-4--4-4-4--|
C#]--------------------------------------4--4-4-4-4--4--4-4-4-4--4--4-4-4-4--4-4-4--|
 
C#]-----------------------------------------------------------------------------------------|
Bb]-----------------------------------------------------------------------------------------|
F#]--6--6-6-6-6--6--6-6-6-6--6--6-6-6-6--8-8-----5--5-5-5-5--5--5-5-5-5--5--5-5-5-5--5-5-5--|
C#]--6--6-6-6-6--6--6-6-6-6--6--6-6-6-6--8-8-----4--4-4-4-4--4--4-4-4-4--4--4-4-4-4--4-4-4--| x3
G#]--4--4-4-4-4--4--4-4-4-4--4--4-4-4-4--6-6-(0)-4--4-4-4-4--4--4-4-4-4--4--4-4-4-4--4-4-4--|
C#]------------------------------------------(0)-4--4-4-4-4--4--4-4-4-4--4--4-4-4-4--4-4-4--|
 
C#]---------------------------------------------------------------------------------------------|
Bb]---------------------------------------------------------------------------------------------|
F#]--6--6-6-6-6--6--6-6-6-6--6--6-6-6-6--------5--5-5-5-5--5--5-5-5-5--5--5-5-5-5---------------|
C#]--6--6-6-6-6--6--6-6-6-6--6--6-6-6-6--8-8-8-4--4-4-4-4--4--4-4-4-4--4--4-4-4-4--4-0-4-0-4-0--|
G#]--4--4-4-4-4--4--4-4-4-4--4--4-4-4-4--6-6-6-4--4-4-4-4--4--4-4-4-4--4--4-4-4-4--4-0-4-0-4-0--|
C#]--------------------------------------6-6-6-4--4-4-4-4--4--4-4-4-4--4--4-4-4-4--4-0-4-0-4-0--|
 
OUTRO:
"Words are missing..."
C#]--------------------------------------------------------------------------------------------|
Bb]--------------------------------------------------------------------------------------------|
F#]--6--6-6-6-6--6--6-6-6-6--6--6-6-6-6--6-6-6-6--6-6-6-6--6--6-6-6-6--6--6-6-6-6--6--6-6-6-6--|
C#]--6--6-6-6-6--6--6-6-6-6--6--6-6-6-6--6-6-6-6--6-6-6-6--6--6-6-6-6--6--6-6-6-6--6--6-6-6-6--|
G#]--4--4-4-4-4--4--4-4-4-4--4--4-4-4-4--6-6-6-4--4-4-4-4--4--4-4-4-4--4--4-4-4-4--4--4-4-4-4--|
C#]--------------------------------------------4--4-4-4-4--4--4-4-4-4--4--4-4-4-4--4--4-4-4-4--|
 
C#]--------------------------------------------------------------------------------------------|
Bb]--------------------------------------------------------------------------------------------|
F#]--6--6-6-6-6--6--6-6-6-6--6--6-6-6-6--------6--6-6-6-6--6--6-6-6-6--6--6-6-6-6--6--6-6-6-6--|
C#]--6--6-6-6-6--6--6-6-6-6--6--6-6-6-6--------6--6-6-6-6--6--6-6-6-6--6--6-6-6-6--6--6-6-6-6--|
G#]--3--3-3-3-3--3--3-3-3-3--3--3-3-3-3--3-1-3-4--4-4-4-4--4--4-4-4-4--4--4-4-4-4--4--4-4-4-4--|
C#]--3--3-3-3-3--3--3-3-3-3--3--3-3-3-3--3-1-3-4--4-4-4-4--4--4-4-4-4--4--4-4-4-4--4--4-4-4-4--|
 
"Stuck in my throat, now that I know it could only be you..."
C#]-------------------------------------------------------------------------------|
Bb]-------------------------------------------------------------------------------|
F#]--6-6---6-6---6-6---8-8---10-10--10-10--10-10--10-10--6-6---6-6---6-6---8-8-5--|
C#]--x-x---x-x---x-x---x-x----x--x---x--x---x--x---x--x--x-x---x-x---x-x---x-x-4--|
G#]--4-4---4-4---4-4---6-6----8--8---8--8---8--8---8--8--4-4---4-4---4-4---6-6-4--|
C#]----------------------------------------------------------------------------4--|
Tap to rate this tab
# A B C D E F G H I J K L M N O P Q R S T U V W X Y Z