Song name
# A B C D E F G H I J K L M N O P Q R S T U V W X Y Z

Reuben - Blamethrower tab

Artist/Band - Reuben
Album - Very Fast Very Dangerous
Song - Blamethrower

Tuning: C# G# C# F# A# D#

Key:
PM = Palm mute
b  = Bend string
\  = Slide downwards
x  = Mute string
^  = Volume swell
~  = Let the note ring


Intro:
D#]------|
A#]------|
F#]------|
C#]--0^--|
G#]--0^--|
C#]--0^--|

D#]-------------------------------------|
A#]-------------------------------------|
F#]-------------------------------------|
C#]-------------------------------------| x4
G#]-------------------------------------|
C#]--0-0-0-12-12-0-0-0-5-5-5-6-6-6-7-7--|

D#]-----------------------------------|
A#]-----------------------------------|
F#]-----------------------------------|
C#]--7-7-8-8-9-x-x-7-7-8-8-9-9-x-x-x--| x4
G#]--7-7-8-8-9-x-x-7-7-8-8-9-9-x-x-x--|
C#]--7-7-8-8-9-x-x-7-7-8-8-9-9-x-x-x--|


Verse 1:
D#]-------------------------------------|
A#]-------------------------------------|
F#]-------------------------------------|
C#]-------------------------------------| x7
G#]-------------------------------------|
C#]--0-0-0-12-12-0-0-0-5-5-5-6-6-6-7-7--|

D#]-------------------------------------|
A#]-------------------------------------|
F#]-------------------------------------|
C#]-------------------------------------|
G#]--------------------0-0-0-0-0-0-0-0--|
C#]--0-0-0-12-12-0-0-0-5-5-5-6-6-6-7-7--|


Pre-Chorus:
D#]-----------------------------------|
A#]-----------------------------------|
F#]-----------------------------------|
C#]--7-7-8-8-9-x-x-7-7-8-8-9-9-x-x-x--| x4
G#]--7-7-8-8-9-x-x-7-7-8-8-9-9-x-x-x--|
C#]--7-7-8-8-9-x-x-7-7-8-8-9-9-x-x-x--|


Chorus:
D#]------------------------------|
A#]------------------------------|
F#]--7--7--7---------------------|
C#]--7--7--7----7-9-9-7-9-9-7-9--| x3
G#]--5--5--5----7-9-9-7-9-9-7-9--|
C#]--0--0--0----7-9-9-7-9-9-7-9--|

D#]--------------------------------|
A#]--------------------------------|
F#]--------------------------------|
C#]--3--3--3----4-4-4-4-5-5-6-6-6--|
G#]--3--3--3----4-4-4-4-5-5-6-6-6--|
C#]--3--3--3----4-4-4-4-5-5-6-6-6--|


Pre-Verse:
D#]-----------------------------------|
A#]-----------------------------------|
F#]-----------------------------------|
C#]--7-7-8-8-9-x-x-7-7-8-8-9-9-x-x-x--| x4
G#]--7-7-8-8-9-x-x-7-7-8-8-9-9-x-x-x--|
C#]--7-7-8-8-9-x-x-7-7-8-8-9-9-x-x-x--|


Verse 2:
"Thinking..."
D#]-------|
A#]-------|
F#]-------|
C#]-------|
G#]-------|
C#]--12\--|

D#]---------------------------------|
A#]---------------------------------|
F#]---------------------------------|
C#]---------------------------------| x4
G#]---------------------------------|
C#]--0-0-4-0-0-4-0-0-4-0-0-4-0-0-4--|


Breakdown:
D#]-------------------------------------------------------------------|
A#]-------------------------------------------------------------------|
F#]-------------------------------------------------------------------|
C#]--0-0--0-0-0--0-0-0--0-0-0--1-1-1-1-1-1--0-0--0-0-0--0-0-0--0-0-0--|
G#]--0-0--0-0-0--0-0-0--0-0-0--1-1-1-1-1-1--0-0--0-0-0--0-0-0--0-0-0--|
C#]--0-0--0-0-0--0-0-0--0-0-0--1-1-1-1-1-1--0-0--0-0-0--0-0-0--0-0-0--|

D#]---------|
A#]---------|
F#]---------|
C#]--x-x-x--|
G#]--x-x-x--|
C#]--x-x-x--|


Pre-Chorus:
D#]-----------------------------------|
A#]-----------------------------------|
F#]-----------------------------------|
C#]--7-7-8-8-9-x-x-7-7-8-8-9-9-x-x-x--| x4
G#]--7-7-8-8-9-x-x-7-7-8-8-9-9-x-x-x--|
C#]--7-7-8-8-9-x-x-7-7-8-8-9-9-x-x-x--|


Chorus:
D#]------------------------------|
A#]------------------------------|
F#]--7--7--7---------------------|
C#]--7--7--7----7-9-9-7-9-9-7-9--| x3
G#]--5--5--5----7-9-9-7-9-9-7-9--|
C#]--0--0--0----7-9-9-7-9-9-7-9--|

D#]--------------------------------|
A#]--------------------------------|
F#]--------------------------------|
C#]--3--3--3----4-4-4-4-5-5-6-6-6--|
G#]--3--3--3----4-4-4-4-5-5-6-6-6--|
C#]--3--3--3----4-4-4-4-5-5-6-6-6--|


Solo:
D#]-----------------------|
A#]--15------12-----------|
F#]------13----------14b--|
C#]--------------12-------|
G#]-----------------------|
C#]-----------------------|

D#]-----------------------|
A#]--15------12-----------|
F#]------13------10--15b--|
C#]-----------------------|
G#]-----------------------|
C#]-----------------------|

D#]------------------------|
A#]--15------12------------|
F#]------13----------14b~--|
C#]--------------12--------|
G#]------------------------|
C#]------------------------|


(Bass and drum interlude)

Outro:
D#]-------------------------------------|
A#]-------------------------------------|
F#]-------------------------------------|
C#]--0-0-0-12-12-0-0-0-5-5-5-6-6-6-7-7--| x4
G#]--0-0-0-12-12-0-0-0-5-5-5-6-6-6-7-7--|
C#]--0-0-0-12-12-0-0-0-5-5-5-6-6-6-7-7--|

D#]------------------------------------------------|
A#]------------------------------------------------|
F#]------14-14-14-14------14-12-12-12-12-12-12-12--|
C#]--0~---x--x--x--x--0~---x--x--x--x--x--x--x--x--| x4
G#]--0~--12-12-12-12--0~--12-10-10-10-10-10-10-10--|
C#]--0~---------------0~---------------------------|
Tap to rate this tab
# A B C D E F G H I J K L M N O P Q R S T U V W X Y Z