Song name
# A B C D E F G H I J K L M N O P Q R S T U V W X Y Z

Reuben - A Kick In The Mouth tab

Artist/Band - Reuben
Album - Very Fast Very Dangerous
Song - A Kick In The Mouth


Tuning: B F# B E A# E

Key:
PM = Palm Mute
>> = Tremelo Pick (Pick really fast)


Intro:

(Drum Enters)

(Bass Enters)

 E]----------------------------------|
A#]----------------------------------|
 E]----------------------------------|
 B]--0-0-9-0-0-0-9-0--3-3-3-5-3-5-3--| x4
F#]--0-0-9-0-0-0-9-0--3-3-3-5-3-5-3--|
 B]--0-0-9-0-0-0-9-0--3-3-3-5-3-5-3--|


Verse 1 Part 1: (Pretty much in time with the lyrics)
 E]-----------------------------|
A#]-----------------------------|
 E]-----------------------------|
 B]--7--6--4--9-7--6--4--4-6-4--| x2
F#]-----------------------------|
 B]-----------------------------|

 E]-----------------------------|
A#]-----------------------------|
 E]--7--6--4--9-7--6--4--4-6-4--|
 B]--7--6--4--9-7--6--4--4-6-4--|
F#]-----------------------------|
 B]-----------------------------|

 E]----------------------|
A#]----------------------|
 E]--7--6--4--9-7--6--4--|
 B]--7--6--4--9-7--6--4--|
F#]----------------------|
 B]----------------------|


Verse 1 Part 2:
 E]-----------------------------|
A#]-----------------------------|
 E]-----------------------------|
 B]--7--6--4--9-7--6--4--4-6-4--| x2
F#]-----------------------------|
 B]-----------------------------|

 E]-----------------------------|
A#]-----------------------------|
 E]--7--6--4--9-7--6--4--4-6-4--|
 B]--7--6--4--9-7--6--4--4-6-4--| x2
F#]-----------------------------|
 B]-----------------------------|


Pre-Chorus:
 E]--------------------------------------------------|
A#]--------------------------------------------------|
 E]--------------------------------------------------|
 B]--6-6-6-6-6-6-6-6--8-8-8--0-0-0-0-0-0-0-0--9-9-9--| x4
F#]--6-6-6-6-6-6-6-6--8-8-8--0-0-0-0-0-0-0-0--9-9-9--|
 B]--6-6-6-6-6-6-6-6--8-8-8--0-0-0-0-0-0-0-0--9-9-9--|


Chorus:
 E]----------------------------------|
A#]----------------------------------|
 E]----------------------------------|
 B]--0-0-9-0-0-0-9-0--3-3-3-5-3-5-3--| x4
F#]--0-0-9-0-0-0-9-0--3-3-3-5-3-5-3--|
 B]--0-0-9-0-0-0-9-0--3-3-3-5-3-5-3--|


Verse 2:

(Bass Only)

 E]-----------------------------|
A#]-----------------------------|
 E]-----------------------------|
 B]--7--6--4--9-7--6--4--4-6-4--| x2
F#]-----------------------------|
 B]-----------------------------|

 E]-----------------------------|
A#]-----------------------------|
 E]--7--6--4--9-7--6--4--4-6-4--|
 B]--7--6--4--9-7--6--4--4-6-4--| x2
F#]-----------------------------|
 B]-----------------------------|


Bridge:
 E]--------------------------------------------------|
A#]--------------------------------------------------|
 E]--------------------------------------------------|
 B]--6-6-6-6-6-6-6-6--8-8-8--0-0-0-0-0-0-0-0--9-9-9--|
F#]--6-6-6-6-6-6-6-6--8-8-8--0-0-0-0-0-0-0-0--9-9-9--|
 B]--6-6-6-6-6-6-6-6--8-8-8--0-0-0-0-0-0-0-0--9-9-9--|
PM   . . . . . . . .  . . .  . . . . . . . .

 E]----------------------------------------------------|
A#]----------------------------------------------------|
 E]----------------------------------------------------|
 B]--6-6-6-6-6-6-6-6--8-8-8--0-0-0-0-0-0-0-0--9-9-9-6--|
F#]--6-6-6-6-6-6-6-6--8-8-8--0-0-0-0-0-0-0-0--9-9-9-6--|
 B]--6-6-6-6-6-6-6-6--8-8-8--0-0-0-0-0-0-0-0--9-9-9-6--|
PM   . . . . . . . .  . . .  . . . . . . . .

 E]--------------------------------------------------|
A#]--------------------------------------------------|
 E]--------------------------------------------------|
 B]--6-6-6-6-6-6-6-6--8-8-8--0-0-0-0-0-0-0-0--9-9-9--| x2
F#]--6-6-6-6-6-6-6-6--8-8-8--0-0-0-0-0-0-0-0--9-9-9--|
 B]--6-6-6-6-6-6-6-6--8-8-8--0-0-0-0-0-0-0-0--9-9-9--|
PM   . . . . . . . .  . . .  . . . . . . . .


Pre-Chorus:
 E]--------------------------------------------------|
A#]--------------------------------------------------|
 E]--------------------------------------------------|
 B]--6-6-6-6-6-6-6-6--8-8-8--0-0-0-0-0-0-0-0--9-9-9--| x2
F#]--6-6-6-6-6-6-6-6--8-8-8--0-0-0-0-0-0-0-0--9-9-9--|
 B]--6-6-6-6-6-6-6-6--8-8-8--0-0-0-0-0-0-0-0--9-9-9--|


Solo:
 E]----------------------------------------------|
A#]--5>>---10>>---8>>-------10>>---17>>---16b>>--|
 E]----------------------------------------------| (Bend the last note
 B]----------------------------------------------|  slowly. Listen to
F#]----------------------------------------------|  the song.)
 B]----------------------------------------------|

C#]--------16>>--14>>--------16>>--21>>--------------------------------|
G#]--17>>--------------------------------19b---------------------------|
 E]-------------------------------------------19b--17b--15b--13b--12b--|
 B]--------------------------------------------------------------------|
F#]--------------------------------------------------------------------|
 B]--------------------------------------------------------------------|


Chorus:
 E]----------------------------------|
A#]----------------------------------|
 E]----------------------------------|
 B]--0-0-9-0-0-0-9-0--3-3-3-5-3-5-3--| x4
F#]--0-0-9-0-0-0-9-0--3-3-3-5-3-5-3--|
 B]--0-0-9-0-0-0-9-0--3-3-3-5-3-5-3--|


Outro Chorus:
 E]----------------------------------|
A#]----------------------------------|
 E]----------------------------------|
 B]--0-0-9-0-0-0-9-0--3-3-3-5-3-5-3--| x3
F#]--0-0-9-0-0-0-9-0--3-3-3-5-3-5-3--|
 B]--0-0-9-0-0-0-9-0--3-3-3-5-3-5-3--|

 E]------------------------------------|
A#]------------------------------------|
 E]------------------------------------|
 B]--0-0-9-0-0-0-9-0--3-3-3-5-3-5-3-0--|
F#]--0-0-9-0-0-0-9-0--3-3-3-5-3-5-3-0--|
 B]--0-0-9-0-0-0-9-0--3-3-3-5-3-5-3-0--|
Tap to rate this tab
# A B C D E F G H I J K L M N O P Q R S T U V W X Y Z