Song name
# A B C D E F G H I J K L M N O P Q R S T U V W X Y Z

Reuben - Ways Of Staying Pure tab

-------------------------------------------------------------------------------
			     WAYS OF STAYING PURE - Reuben
-------------------------------------------------------------------------------
Tabbed by: ColourOfAnger
Email: whatgoesup_@hotmail.com

Tuning: Standard

Verse

e|-----------------------------------------------|
B|-----------------------------------------------|
G|-----------------------------------------------|
D|-555-xx-888-xx-555-xx-888-xx-555-xx-888-333333-|
A|-555-xx-888-xx-555-xx-888-xx-555-xx-888-333333-|
E|-333-xx-666-xx-333-xx-666-xx-333-xx-666-111111-| x4

Chorus

e|-3-666-3-666---------|
B|-3-666-3-666---------|
G|-5-888-5-888---------|
D|-5-888-5-888-5-8-5-8-|
A|-3-666-3-666-5-8-5-8-|
E|-3-666-3-666-3-6-3-6-| x1

e|-3-666-3-666---------|
B|-3-666-3-666---------|
G|-5-888-5-888---------|
D|-5-888-5-888-555-888-|
A|-3-666-3-666-555-888-|
E|-3-666-3-666-333-666-| x3

After verse/chorus/verse/chorus...

e|-------------------------|
B|-------------------------|
G|-------------------------|
D|-5-xxxx-7-xxxx-9-xxxx-10-|
A|-5-xxxx-7-xxxx-9-xxxx-10-|
E|-3-xxxx-5-xxxx-7-xxxx-8--| x4

e|--------------------------|
B|--------------------------|
G|-10----10----10----555555-|
D|----12----12----12--------|
A|--------------------------|
E|--------------------------| x4

Then back to verse/chorus.


| /  slide up
| \  slide down
| h  hammer-on
| p  pull-off
| ~  vibrato
| +  harmonic
| x  Mute note
===============================================================================
Tap to rate this tab
 
# A B C D E F G H I J K L M N O P Q R S T U V W X Y Z